logo

 
1994 - Παρέα μ΄ έναν ήλιο

Λαδάδικα (tab)

Μητροπάνος Δημήτρης

 

Μουσική/Στίχοι: Γράψας Φίλιππος/Γράψας Φίλιππος

Στις: 23-03-2011
(2.5, με 34 ψήφους)
 
 

Αξιολογήστε την παραπάνω καταγραφή του τραγουδιού:    Ακριβής     Λανθασμένη
Βρήκατε κάποιο λάθος; Δηλώστε το παρακάτω, ή χρησιμοποιήστε την Αποστολή Διόρθωσης.
 
Η χρήση επιτρέπεται μόνο για προσωπική μελέτη και για εκπαιδευτικούς λόγους.
Η παραπάνω καταγραφή δηλώνει την προσωπική γνώμη του αποστολέα για τον τρόπο με τον οποίο μπορεί να παιχτεί το παραπάνω τραγούδι.
 

YouTube

Facebook

 
Σύμφωνα με τα στατιστικά μας, σας προτείνουμε να συνεχίσετε με ένα από τα παρακάτω τραγούδια:
 
 
Βρέθηκαν και άλλες εκδόσεις αυτού του τραγουδιού (ή τραγούδια με παρόμοιους στίχους):
 

Σχόλια / Διορθώσεις / Αφιερώσεις:
 
Από: ΝίκοςΤ, στις 18-10-2015:
Η μουσική αυτού του υπέροχου κομματιού είναι του αείμνηστου Μάριου Τόκα και όχι του - επίσης πολύ αγαπημένου μας- Φίλιππου Γράψα. Ευχαριστώ!
 

 
Από: ΛΕΥΤΕΡΗΣ, στις 02-03-2015:
to  couplait  ΕΧΕΙ  Am  Dm  Dm  G   Am,ΔΗΛ.  ΟΠΩΣ  ΚΟΙΜΑΣΑΙ  ΣΤΑ  ΣΤΕ-- EINAI ολο Dm -( ΝΑ ΠΑΛΙΑ ΛΑΔΑ-)-G ΔΙΚΑ Am
 

 
Από: ΛΕΥΤΕΡΗΣ, στις 02-03-2015:
(ΟΠΩΣ  ΚΟΙΜΑΣΑΙ  ΣΤΑ  ΣΤΕ)-  Dm- ΝΑ  G ΠΑΛΙΑ  ΛΑΔΑΔΙΚΑ  Am          ΚΙ ΟΛΟ ΤΟ Couplait ΕΙΝΑΙ ΕΤΣΙ Am ,Dm,Dm G,Am
 

 
Από: kwstas, στις 27-08-2013:
|-0-0-0-0-----------------0-----------------------------
|---------3-1-0------0-1-3---3-3-3-3-1-0---------0-1-0--
|---------------2-2----------------------2-0-0-2-------0

λαθος ετσι ειναι..
 

 
Από: kwstas, στις 27-08-2013:
|-0-0-0-0-----------------0----------------------------
|---------3-1-------0-1-3---3-3-3-3-1-0---------0-1-0--
|-------------0-2-2---------------------2-0-0-2-------0

παιδια εχω την εντυπωση πως ετσι ειναι
 

 
Από: Tony, στις 23-06-2012:
gia mpouzouki.?
 

 
Από: EmEl, στις 29-04-2012:
Am                             Dm
Σε συζητάν δίχως γιατί και όχι άδικα
        G                       C –E -Am
όπως κοιμάσαι στα στενά παλιά λαδά-δι-κα
Am                             Dm 
έγινες φήμη και γι αυτό δε φυλακίζεσαι
            G                      C - E - Am 
ζεις στο σκοτάδι παστρικά μα δεν ορκί-ζε-σαι

Am                                 Dm
Λάμπεις στα κόκκινα σατέν που σε τυλίγουνε
            G                     C – E - Am
άσπροι και σέρτικοι καπνοί σε καταπί-νου-νε
Am                             Dm
σε καλντερίμια ξενυχτάς υγρά λιθόστρωτα
           G                     C –E - Am 
στου πληρωμένου παραδείσου την αυλό-πορ-τα

Am             Dm
Τόσα δίνω πόσα θες
      G                      C -E 
στα λαδάδικα πουλάν αυτό που θε-ες
Am            Dm     
κάθε κάμαρα κελί
       G                  Am
με βαριά παλικαρίσια αναπνοή

...Elpizw na einai swto...
Me Agapi kai Etkimisi ston KYRIO Dimitri Mitropano kai stous filous tou
 

 
Από: (ανώνυμο), στις 19-08-2011:
poly swsto mono pou sto ladadika to 3 einai 1 diladi
|-0-0-------------------------0-------------------------------------
|-----3-3-1-1-0-0-------0-1-3---3----3-3-1-1-0-0-----------0->1<-0--
|-----------------2---2--------------------------2-0---0-2---------2   ] 4x
|-------------------------------------------------------------------
|-------------------------------------------------------------------
|-------------------------------------------------------------------

an exei kaneis kai ta swsta akorda grapste ta
 

 
Από: (ανώνυμο), στις 01-07-2011:
kamia sxesi omwss..:P
 

 
Από: (ανώνυμο), στις 01-07-2011:
nomizw pws i eisagwgi ine
/0 0
   3 3 3 1 0 2
/
/
/
/
/