logo

 
2002 - Κρυφό φιλί

Δεν έχω χρόνο

Χατζηγιάννης Μιχάλης

 

Μουσική/Στίχοι: Χατζηγιάννης Μιχάλης/Κριεζή Μαριανίνα

Από: Tolis
Στις: 06-10-2001
(3.2, με 37 ψήφους)
 
 

Αξιολογήστε την παραπάνω καταγραφή του τραγουδιού:    Ακριβής     Λανθασμένη
Βρήκατε κάποιο λάθος; Δηλώστε το παρακάτω, ή χρησιμοποιήστε την Αποστολή Διόρθωσης.
 
Η χρήση επιτρέπεται μόνο για προσωπική μελέτη και για εκπαιδευτικούς λόγους.
Η παραπάνω καταγραφή δηλώνει την προσωπική γνώμη του αποστολέα για τον τρόπο με τον οποίο μπορεί να παιχτεί το παραπάνω τραγούδι.
 
Αλλαγή τόνου: ημιτόνια

YouTube

Facebook

 
Σύμφωνα με τα στατιστικά μας, σας προτείνουμε να συνεχίσετε με ένα από τα παρακάτω τραγούδια:
 
 
Βρέθηκαν και άλλες εκδόσεις αυτού του τραγουδιού (ή τραγούδια με παρόμοιους στίχους):
 

Σχόλια / Διορθώσεις / Αφιερώσεις:
 
Από: Aldo , στις 24-05-2016:
To riffακι λιγο πιο ευκολο...
|---------------1-0------1-----3---------------
|------3-1--------------------------------3-1--
|----2--------2--------2-----4---4------2------
|-----------3--------3-----5-------5-----------
|--0----------------------------------0--------
|----------------------------------------------

Ευχαριστω :)
 

 
Από: riptor01, στις 19-12-2010:
dokimaste to se -2 imitonia kai opou to prwto D# na to kanete Cm kai na kratisete to 2 D#....dld.....

           Gm               Cm
Πες μου τι θέλεις γιατί με παίρνεις
         D#        F            Gm
μήνες ολόκληρους μετά το χωρισμό

kai paei legontas! ypopsin einai kalo na ta pezete se allo ta tasto ta accorda oxi ta klassika! akougete kalytera! psakste pws alliws pianontai na deite! ;)
 

 
Από: spiros7, στις 08-11-2009:
ta chords einai lathos paidia
 

 
Από: Nikos, στις 06-09-2008:
Solo :
|----------------------------------------------------------
|----------------------------------------------------------
|10--7-----------------------7--9--10--------10--9--10--7--
|------------9--9--7--12--10---------------9--7------------
|----------------------------------------------------------
|------------------------------------------------------- 2x
 

 
Από: Helen, στις 01-04-2007:
Nomizw k egw pws to prwto F dn einai F alla Dm kai pou einai h gefyra metaxy couple k refrain???!
 

 
Από: Leras_gr, στις 29-01-2007:
                                                            F          G Am δεν έχω χρόνο για αλλο πόνο
 

 
Από: john, στις 21-02-2006:
re paidia kserei kaneis poy mporw na vrw guitar pro ellinika kommatia;;
 

 
Από: pilgrim, στις 12-03-2004:
Η γνώμη μου είναι πώς στο -5 ημιτόνιο του τραγουδιού επιδέχονται κάποιες αλλαγές/προσθήκες:
1) στο κουπλέ χρειάζεται γύρισμα μετά το Εm σε D εκτός απο τη τελευταία σειρά της δεύτερης και τρίτης στροφής
2) στο ρεφραίν στη τρίτη σειρα μετα τη G και ανάμεσα απο τη Em θέλει D
3) στη προτελευταία και τελευταία σειρά του ρεφραίν νομίζω οτι το γύρισμα πρέπει να γίνει σε Am αντί για C
 

 
Από: nasos, στις 30-09-2003:
h prwth F sto couple einai Dm kai ennoeite pws sunexizei etsi mexri to refren