logo
  
2003 - Οι περιπέτειες ενός προσκυνητή

Απόγευμα στο δέντρο

Ιωαννίδης Αλκίνοος

 

Μουσική/Στίχοι: Ιωαννίδης Αλκίνοος/Ιωαννίδης Αλκίνοος


E ουσάκ (*)
Από: Χαράλαμπος Ηρακλέους
Στις: 14-08-2003
(2.9, με 39 ψήφους)
 
 
  
                    
  
           
        
        
 
                     
           
            
 
                    
          
           
 
                      
         
            
 
                    
          
           
 
                         
             
            
 
 
                                       
 
                                                                                                                                                                                                 
 
                               
                               
                               
                               
                               
                               

 
(*) Η τονικότητα του τραγουδιού εκτιμήθηκε αυτόματα από τις συγχορδίες του. Σε περίπτωση λάθους στείλτε διόρθωση.
Αξιολογήστε την παραπάνω καταγραφή του τραγουδιού:    Ακριβής     Λανθασμένη
Βρήκατε κάποιο λάθος; Δηλώστε το παρακάτω, ή χρησιμοποιήστε την Αποστολή Διόρθωσης.
 
Η χρήση επιτρέπεται μόνο για προσωπική μελέτη και για εκπαιδευτικούς λόγους.
Η παραπάνω καταγραφή δηλώνει την προσωπική γνώμη του αποστολέα για τον τρόπο με τον οποίο μπορεί να παιχτεί το παραπάνω τραγούδι.
 
Αλλαγή τόνου: ημιτόνια

YouTube

Facebook

 
Σύμφωνα με τα στατιστικά μας, σας προτείνουμε να συνεχίσετε με ένα από τα παρακάτω τραγούδια:
 
 
Βρέθηκαν και άλλες εκδόσεις αυτού του τραγουδιού (ή τραγούδια με παρόμοιους στίχους):
 

Σχόλια / Διορθώσεις / Αφιερώσεις:
 
Από: adg, στις 04-12-2012:
e-----0-0----------------------------
B--------3-1-0-----------------------
G-2------------2-------0-2-2-0-------
D----------------0-2-3---------------
A---0--------------------------------
E------------------------------------
 

 
Από: Αχιλλεας, στις 17-11-2010:
Παιδια ετσι ειναι το σωστο!
e    0 0
B       3 1 0         1 1 0
G            2      2
D   2          0 2 3
A  0
E 3
 

 
Από: liakos, στις 23-07-2010:
vasili exeis dikio i 12xordi ta spaei t epai3a kai akougetai apisteyta!!
 

 
Από: Βασίλης Μούσκουρης, στις 13-04-2010:
Παιδιά, στην πραγματικότητα το ριφάκι αποτελείται κάθε φορά από δύο κύκλους, που ο 2ος είναι επανάληψη του 1ου με ελάχιστη διαφορά στο τέλος της φράσης. Δηλαδή:

(1ος κύκλος):

e----------------------------------
B-------------------------1-1-0----
G-2---------------------2----------
D-----2-2-0-------0-2-3------------
A---0-------3-2-0------------------
E--------------------------------3-

(2ος κύκλος/επανάληψη με αμυδρή διαφορά):

e---------------------------------
B---------------------------------
G-2---------------------0-2---0---
D-----2-2-0-------0-2-3-----------
A---0-------3-2-0-----------3---2-
E---------------------------------

Υ.Γ. Ακούγεται πολύ όμορφα με 12χορδη με τις διπλές χορδές σε οκτάβες ! ! !
 

 
Από: Xristin@, στις 10-12-2009:
paidia i diki mou ekdoxi tou solo...

E---0-0-------------------------
B-------3-1-0-------------------
G-2-----------2-------0--2-2-0--
D---------------0-2-3-----------
A-------------------------------
Ε-------------------------------
 

 
Από: eleni #alkinoos 4 ever#, στις 15-07-2009:
fovero tragoudi!!!!!! o alkinoos einai panta kataplhktikos se oti kanei!!!!!!!!
 

 
Από: καραμητρος, στις 19-06-2009:
εξαρταται απο που το παιζεις το κομματι!!!
 

 
Από: swkratikh mia zwh, στις 07-09-2008:
εμένα μου φαίνεται πως το solo πάει ως εξής:
E---0-0--------------------------
B------3-1-0-------1-1-0---------
G-2---------2-----0--------------
D--2---------0-2-3---------------
A--------------------------------
Ε--------------------------------
 

 
Από: tellas, στις 15-07-2008:
pisteuo sosto eine mono tou kosta
 

 
Από: Jiannis, στις 27-04-2008:
Να πω κι εγώ τη γνώμη μου, πιστεύω πως το μόνο σωστό είναι του κώστα αλλά και του acevk ίσως είναι μία άλλη καλή προσέγγιση(δε μου ακούγεται σωστά όπως πας κατευθείαν απο την ελευθερη Λα στην Μι) και όλες οι άλλες είναι απλά λάθος!
 

 
Από: δήμητρα, στις 21-04-2008:
παιδιά πιστεύω πως εκτός από τα δυο πρώτα είναι όλα σωστά απλά αλλάζει η τονικότητα λίγο δν είναι λάθος!!!
το πρώτο απλά έχει μια αλλαγή και το δεύτερο δεν ξέρω, μπορεί να είναι και σωστό. Την γνώμη μου πάντως την είπα!
 

 
Από: acevk, στις 18-03-2008:
Poio polu to exei prosegisei o Κώστας alla nomizw to swsto einai to.......(meta kai apo epalithefsi apo to dvd sto likabito....


-----0-0------------------------------
---------3-1-0-----------1-1-0--------
--2------------2-------2-2-2----------
-----------------0-2-3----------------
----0---------------------------------
3-------------------------------------
 

 
Από: kk, στις 01-03-2008:
mallon ine:
---------------------------
--0------------------------
--------------0-2-3--------
-2----------2------2-2-2---
------3-1-0----------1-1-0-
---0-0---------------------
 

 
Από: ssssssss, στις 26-12-2007:
nomizo oti to pio sosto einai tou ERESOR.........
 

 
Από: kaith, στις 08-12-2007:
teleio tragoudi!!!!

btw mina sto telos tetrafwnia dn einai????
opws kai na 'xei, einai poly kalo1
 

 
Από: Thanasis, στις 06-11-2007:
APEKTO!!!!!!!
 

 
Από: mina, στις 27-08-2007:
τέλειοοοοοοο !!!!!!
και οι τριφωνία στο τέλος είναι εκπληκτική !!!
 

 
Από: madgoshhhh, στις 26-08-2007:
apla agapw alkinooo :D:D:D
 

 
Από: κάποια, στις 21-08-2007:
Παιδιά το τραγούδι είναι απλά τζαμάτο!!!!
Και οι ταμπλατούρες είναι πολύ καλές!.......
 

 
Από: jih1947, στις 16-07-2007:
e---------------------------
B----------------------1-1-0
G--------------------2------
D--2-2-0-------0-2-3--------
A-0------3-2-0--------------
E---------------------------
 

 
Από: μαριαννα, στις 23-06-2007:
to pio swsto ine t kwsta pistevw
 

 
Από: xaralambos, στις 30-05-2007:
opws kai naxei en alkinoos just listen
 

 
Από: alex, στις 26-05-2007:
re pedia, telika intalos eni to kommati;;??
 

 
Από: κώστας, στις 14-04-2007:
νομίζω πως κι έτσι σωστό είναι. νομίζω πάντα...

e--0-0---------------------------
B-----3-1-0-------1-1-0----------
G-2--------2-----2---------------
D-----------0-2-3----------------
A--------------------------------
E--------------------------------
 

 
Από: σπυρος, στις 28-04-2006:
πολυ ωραιο κομματι
 

 
Από: ERESOR, στις 13-09-2005:
Am
Ο κόσμος ξεμακραίνει
Dm
Είναι βράδυ
F     Em
Μη μιλάς

Ωραία στιγμή μου ξένη
Στάσου λίγο
αν μ' αγαπάς
 
Βαθαίνουν τα πηγάδια
Το φεγγάρι
Όταν κοιτάς

Ζωή μου που 'σαι άδεια
Γέλα λίγο
Αν μ' αγαπάς

Ανθίζουνε τ’ αστέρια
Όνειρό μου
Όταν περνάς
 
Δώσ’ μου τα δυο σου χέρια
Και τον κόσμο
Αν μ’ αγαπάς

e--------------------------------
B-------------------------1-1-0--
G-2---------------------2--------
D-----2-2-0-------0-2-3----------
A---0-------3-2-0----------------
E--------------------------------
 

 
Από: Δημήτρης Στάμος, στις 30-06-2005:
Το solo νομίζω πως είναι έτσι

E----------------------------------
B----------------------------------
G----------------------------------
D-----7-7-5-3---------------3------
A-5-5---------7-5-------3-5---7-3--
E-----------------3-5-6------------
 

 
Από: Μαρινος Κωστη, στις 10-03-2005:
Am
Ο κόσμος ξεμακραίνει
Dm
Είναι βράδυ
F     Em
Μη μιλάς

Ωραία στιγμή μου ξένη
Στάσου λίγο
αν μ' αγαπάς
 
Βαθαίνουν τα πηγάδια
Το φεγγάρι
Όταν κοιτάς

Ζωή μου που 'σαι άδεια
Γέλα λίγο
Αν μ' αγαπάς

Ανθίζουνε τ’ αστέρια
Όνειρό μου
Όταν περνάς
 
Δώσ’ μου τα δυο σου χέρια
Και τον κόσμο
Αν μ’ αγαπάς

e--------------------------------
B-------------------------1-1-0--
G-2---------------------0--------
D-----2-2-0-------0-2-3----------
A---0-------3-2-0----------------
E--------------------------------