logo
  
2011 - Μυστήριο τρένο

Σαν το φύλλο στον αέρα

Σαμπάνης Γιώργος

 

Μουσική/Στίχοι: Σαμπάνης Γιώργος/Φάκος Δημήτρης


D μινόρε (*)
Στις: 11-10-2011
(3.4, με 38 ψήφους)
 
 
                                          
 
                               
                              
                                 
                                 
                          
                         
                                   
                                   
 
                               
                                
                              
                              
                                  
                                     
                              
                              
 
                                
                                
                                 
                                        
 
                            
                                         
                               
                                   
 
                                
                              
                                     
                              
                                
                                
                                 
                                        
 
                   
                   
                   
                   
                       
                          
                     
                        
                
                    
 
                                
                              
                                     
                              
                                
                                
                                 
                                        

 
(*) Η τονικότητα του τραγουδιού εκτιμήθηκε αυτόματα από τις συγχορδίες του. Σε περίπτωση λάθους στείλτε διόρθωση.
Αξιολογήστε την παραπάνω καταγραφή του τραγουδιού:    Ακριβής     Λανθασμένη
Βρήκατε κάποιο λάθος; Δηλώστε το παρακάτω, ή χρησιμοποιήστε την Αποστολή Διόρθωσης.
 
Η χρήση επιτρέπεται μόνο για προσωπική μελέτη και για εκπαιδευτικούς λόγους.
Η παραπάνω καταγραφή δηλώνει την προσωπική γνώμη του αποστολέα για τον τρόπο με τον οποίο μπορεί να παιχτεί το παραπάνω τραγούδι.
 
Αλλαγή τόνου: ημιτόνια
 
Σύμφωνα με τα στατιστικά μας, σας προτείνουμε να συνεχίσετε με ένα από τα παρακάτω τραγούδια:
 
 
Βρέθηκαν και άλλες εκδόσεις αυτού του τραγουδιού (ή τραγούδια με παρόμοιους στίχους):
 
 
Τραγουδάτε μαζί με άλλους; Με αυτό τον κωδικό μπορείτε να δείτε όλοι γρήγορα το ίδιο τραγούδι:
QR-code
 

Σχόλια / Διορθώσεις / Αφιερώσεις:
 
Από: Σκλάβης Χάρης, στις 13-09-2014:
Μπορεί κάποιος να ανεβάσει το Ποιόν αγαπάς!!!!!!!
 

 
Από: Despina, στις 11-02-2013:
Dm            A#          F
Η ζωή μου σαν το φύλλο στον αέρα
     C         Gm
Ξημερώματα να πέφτει στη φωτιά
         Dm       A#             F
Τι κι αν γλύτωσα από την πρώτη σφαίρα
    C          Am            Dm
Η επόμενη με βρήκε στην καρδιά
 

 
Από: vasilis, στις 10-11-2012:
re dn stamatate na vrizeste kai na anevasei kapoios to swsto tragoudi na teleionoume????
 

 
Από: NOTIA PROASTIA 13, στις 23-06-2012:
C            Am           Dm
Η επόμενη με βρήκε στην καρδιά

 etsi einai to swsto!! protathlima kai sipello ston panathinaiko!!!!!!!!!!!
 

 
Από: TheAcoustic21, στις 02-05-2012:
ΠΟΛΥ ΣΩΣΤΗ Η ΕΚΔΟΧΗ ΤΟΥ ΝΙΚΟΥ ΣΤΟ ΣΥΓΚΕΚΡΙΜΕΝΟ ΜΕΡΟΣ ΤΟΥ ΚΟΜΜΑΤΙΟΥ...
 

 
Από: mixalis, στις 10-02-2012:
de mou les @no name....h teleytaia sygxordia einai re minore h're methenaths?????
 

 
Από: no name, στις 07-02-2012:
dr_christou einai swsta ta tabs, mbravo gia thn prospa8eia.....
 

 
Από: mixalis, στις 16-01-2012:
lathos k ayto.....
 

 
Από: dr_christou, στις 13-01-2012:
Syggnomi gia to proigoumeno lathos... Edw einai to swsto... Elpizw na paizetai eukola i eisagogi....! Hav fun!

   Dm          A#         F   
e|----0-1----------------------1---|
B|-1h3--3----------------------1---|
G|------2-22-2-2h3-33h2h0-0h22-2---|
D|------0----------------------3---|
A|-------------1---------------3---|
E|------------------------1----1---|

        C                    Gm
e|---------------------------------3----|
B|----0-1-1-1-1-1-----------------3-3---|
G|-2h3--0---------3--3-2--0------3------|
D|------2-----------------------5-------|
A|------3-------3--------------5--------|
E|---------------------------3----------|

   Dm          A#         F
e|----0-1----------------------1-|
B|-1h3--3----------------------1-|
G|------2-22-2-2h3-33h2h0-0h22-2-|
D|------0----------------------3-|
A|-------------1---------------3-|
E|------------------------1----1-|

        C               Dm
e|--------------------------1------------|
B|----0-1-1-1-1-1----3-----3-3-----------|
G|-2h3--0---------2-2-----2---2----------|
D|------2---------------0-------0--------|
A|------3-------3------------------------|
E|---------------------------------------|
 

 
Από: dr_christou, στις 13-01-2012:
   Dm          A#         F   
e|----0-1----------------------1---|
B|-1h3--3----------------------1---|
G|------2-22-2-2h3-33h2h0-0h22-2---|
D|------0----------------------3---|
A|-------------1---------------3---|
E|------------------------1----1---|

        C                    Gm
e|---------------------------------3----|
B|----0-1-1-1-1-1-----------------3-3---|
G|---------------------------3----------|
D|------2-----------------------5-------|
A|------3-------3--------------5--------|
E|-2h3--0---------3--3-2-0-------3------|

   Dm          A#         F
e|----0-1----------------------1-|
B|-1h3--3----------------------1-|
G|------2-22-2-2h3-33h2h0-0h22-2-|
D|------0----------------------3-|
A|-------------1---------------3-|
E|------------------------1----1-|

        C               Dm
e|--------------------------------------|
B|----0-1-1-1-1-1----3-----3-3----------|
G|-2h3--0---------2-2-----2---2---------|
D|------2---------------0-------0-------|
A|------3-------3-----------------------|
E|--------------------------1-----------|
 

 
Από: ΔΗΜ., στις 22-12-2011:
Παιδιά γνωρίζει κανείς στο συγκεκριμμένο τραγούδι πως παίζεται η εισαγωγή ?
 

 
Από: Michael, στις 28-11-2011:
Παιδια μηπως υπαρχουν και σε tabs αυτα?Ή μηπως καποιος να τα μετατρεψει γιατι με ενδιαφερει πολυ το τραγουδι αυτο
 

 
Από: Nikos, στις 28-11-2011:
A#      Am       A#    
Πάμε πάλι στην αρχή
A#      Am       A#
Της αγάπης διαδρομή
A#      Am         Dm
Μες στα χέρια μου κοιμήσου
     C            A#
Και θα 'μαι εγώ μαζί σου
     Am          Dm
Για μια ζωή μαζί σου

Dikh mou apopsh fusika ! ! ! 
ta couple kai to refren einai oloswsta ! ! !
 

 
Από: aSTELLAki, στις 13-11-2011:
kalutero den vgainei me autes tis sugxordies pou sou eixa dwsei?...ekanes mia aporosexia omws
C        Am                        Dm
Δε θ'αντέξω κι άλλη σφαίρα στη καρδιά (mono se ayto to shmeio den to allaxes)!