logo

 
2000 - Ο φύλακας κι ο βασιλιάς

Πριγκηπέσσα

Μάλαμας Σωκράτης

 

Μουσική/Στίχοι: Μάλαμας Σωκράτης/Μάλαμας Σωκράτης

Από: bri-lliant
Στις: 20-12-2008
(3.4, με 103 ψήφους)
 
 

Αξιολογήστε την παραπάνω καταγραφή του τραγουδιού:    Ακριβής     Λανθασμένη
Βρήκατε κάποιο λάθος; Δηλώστε το παρακάτω, ή χρησιμοποιήστε την Αποστολή Διόρθωσης.
 
Η χρήση επιτρέπεται μόνο για προσωπική μελέτη και για εκπαιδευτικούς λόγους.
Η παραπάνω καταγραφή δηλώνει την προσωπική γνώμη του αποστολέα για τον τρόπο με τον οποίο μπορεί να παιχτεί το παραπάνω τραγούδι.
 
Αλλαγή τόνου: ημιτόνια

YouTube

Facebook

 
Σύμφωνα με τα στατιστικά μας, σας προτείνουμε να συνεχίσετε με ένα από τα παρακάτω τραγούδια:
 
 
Βρέθηκαν και άλλες εκδόσεις αυτού του τραγουδιού (ή τραγούδια με παρόμοιους στίχους):
 

Σχόλια / Διορθώσεις / Αφιερώσεις:
 
Από: Sam_GR, στις 28-01-2015:
https://www.youtube.com/watch?v=mbAgyOV_P2E

---------------ΕΔΩ COVER ΕΙΣΑΓΩΓΗΣ----------------
 

 
Από: John St, στις 17-10-2013:
egw nomizw pws exei merika lathi alla kalo einai mexri na m dowsei o daskalos tou wdeiou tin partitoura
 

 
Από: Γιώργος, στις 23-05-2013:
ωραίος φίλε!το τραγούδι πολύ ωραίο!!μα όπως λέει και η Αναστασία εκεί που λέει

Dm                     F            Em
έλεγα περνούν τα χρόνια θα συμμορφωθώ

πάει καλύτερα

Dm                     G           Em
έλεγα περνούν τα χρόνια θα συμμορφωθώ
 

 
Από: ερρικάρας, στις 15-03-2011:
συμφωνω με τον nick πως παει ο ρυθμος γιατι βγαζω και τις συγχωρδιες και την εισαγωγη που μας δινει ο brilliant
 

 
Από: Θανάσης, στις 16-05-2010:
i isagwgi exei polla la8i...
 

 
Από: (ανώνυμο), στις 30-12-2009:
D:|-2-7-9---9-9-10-9--10-7-9-7-9-5-7-9---9-9-10-9-10-7-9-7-9-5-7-7-7-9-7-9-5-7-5-7-3-7--7-7-9-5-7-5-3-2-2--------------------------------------
Nomizo to telos einai la8os.Auti einai i diki mou ektelesi tou kommatiou
 

 
Από: Αναστασία, στις 11-12-2009:
Στη θεση του f στη δευτερη γραμμη σημειωσατε G

Καλη δουλεια φιλε συνεχισε. Να σαι καλα.

Καλησπερα
 

 
Από: vagelis, στις 12-11-2009:
γιατί ρε επιστήμονα το έπαιξες και δε σου βγαίνει σωστο;
Ξερεις εδώ δε μπαίνουμε μόνο για να δούμε τις συγχορδίες,μπαίνουμε και για τους στίχους...τις συγχορδίες τις βρίσκουμε και χωρίς το site.
 

 
Από: marduk, στις 08-11-2009:
kalitera rwtiste kanenan idiko lew egw(xwris parexigisi) giati monos tou then the erthei den exei kai logo na to kanei afou to xerei
 

 
Από: vagelis, στις 31-10-2009:
το ξαναγράφω αφήνοντας διαστήματα για να καταλάβετε τους χρόνους:
mi.la si ...si do si do la si la si (X2)
mi la... la si la  si sol la sol la
fa la...la si la si sol la sol la
mi.la si...si do si do la si la si (X2)
mi la...la si la  si sol la sol la
fa la...la si la si sol la sol la
mi mi...fa mi sol mi fa mi fa mi
mi mi ...fa mi sol la sol fa mi
ελπίζω να βοήθησα...
 

 
Από: vagelis, στις 31-10-2009:
το ξαναγράφω ολόκληρο:
mi la si si do si do la si la si (X2)
mi la la si la  si sol la sol la
fa la la si la si sol la sol la
mi la si si do si do la si la si (X2)
mi la la si la  si sol la sol la
fa la la si la si sol la sol la
mi mi fa mi sol mi fa mi fa mi
mi mi fa mi sol la sol fa mi
 

 
Από: vagelis, στις 31-10-2009:
επειδή την εισαγωγή μόνο σε πεντάγραμμο μπορώ να την αποτυπώσω και δεν έχω σας γράφω τις νότες και όποιος καταλάβει,κατάλαβε!!
mi la si si do si do la si la si (X2)
mi
 

 
Από: tasos1992, στις 20-10-2009:
Σημερα το ξανακοίταξα και κατέληξα ότι είναι ετσι:
(Το 0 στην παρενθεση ειναι αυτο που βρισκεται στο προηγουμενο μετρο και δεν παίζεται)
|-----------------------------------------------------------------------------------------------------------------
|-----------------------------------------------------------------------------------------------------------------
|-----------------------------------------------------------------------------------------------------------------
|-----------------------------------------------------------------------------------------------------------------
|----0h2--2--2-3-2-3-0-2-0-2----0h2--2--2-3-2-3-0-2-0-2---0--0--0-2-0-2---0---0---0--0--0-2-0-2---0---------------
|--0-------------------------3--------------------------3---------------3---3---1---------------3---3-1-0---------

|-----------------------------------------------------------------------------------------------------------------
|-----------------------------------------------------------------------------------------------------------------
|-----------------------------------------------------------------------------------------------------------------
|-----------------------------------------------------------------------------------------------------------------
|----0h2--2--2-3-2-3-0-2-0-2----0h2--2--2-3-2-3-0-2-0-2---0--0--0-2-0-2---0---0---0--0--0-2-0-2---0---------------
|-(0)------------------------3--------------------------3---------------3---3---1---------------3---3-1-0---------
 
|----------------------------------------------------------------
|----------------------------------------------------------------
|----------------------------------------------------------------
|----------------------------------------------------------------
|---------0h2h0------------------0h2h0---------------------------
|-0-1-0-3-------3-1-0----0-1-0-3-------3-1-0--0------------------
 

 
Από: tasos1992, στις 19-10-2009:
Παιδια εγω νομιζω πως παει ετσι : (Το 0 στην παρενθεση ειναι αυτο που βρισκεται στο προηγουμενo μετρο)
|-----------------------------------------------------------------------------------------------------------------
|-----------------------------------------------------------------------------------------------------------------
|-----------------------------------------------------------------------------------------------------------------
|-----------------------------------------------------------------------------------------------------------------
|----0h2--2--2-3-2-3-0-2-0-2----0h2--2--2-3-2-3-0-2-0-2---0--0--0-2-0-2-----------0--0--0-2-0-2-0-2---------------
|--0-------------------------3--------------------------3---------------3-5-3-5-1-------------------3-1-0---------

|-----------------------------------------------------------------------------------------------------------------
|-----------------------------------------------------------------------------------------------------------------
|-----------------------------------------------------------------------------------------------------------------
|-----------------------------------------------------------------------------------------------------------------
|----0h2--2--2-3-2-3-0-2-0-2----0h2--2--2-3-2-3-0-2-0-2---0--0--0-2-0-2-----------0--0--0-2-0-2-0-2---------------
|-(0)------------------------3--------------------------3---------------3-5-3-5-1-------------------3-1-0-0-------
 
 
|----------------------------------------------------------------
|----------------------------------------------------------------
|----------------------------------------------------------------
|----------------------------------------------------------------
|-------------------------0h2h0----------------------------------
|-0-1-3-1-3-0-0-----0-1-3-------3-1-0--0-------------------------
 

 
Από: santasimos, στις 18-10-2009:
paidia i pio apli tablature einai auti.....
B-0---5-7-7-7878-5757-0-5-7-7-7878-5757 0-5-5-5757-3535-0-5-5-5757-3535310-01030103010
B-0---5-7-7-7878-5757-0-5-7-7-7878-5757 0-5-5-5757-3535-0-5-5-5757-3535310-0103010-7-5-3-5-3-1-0
 

 
Από: JohnyG, στις 15-09-2009:
|------------------------------------------------------------------------------------------------------------------------------
|------------------------------------------------------------------------------------------------------------------------------
|------------------------------------------------------------------------------------------------------------------------------
|-----7h9-9-910 910 79 79 --(X2)-------7 7 79 79--57 57 -----7-7-79 79 57 57 --------------------------------------------------
|------------------------------------0--------------------0--------------------77-7810--12p10p8/7 77---7810--12p10p8/7 7--------
|---0---------------------------------------------------------------------------------------------------------------------------

καλησπερα, 1η φορα δοκιμαζω επειδη μ'αρεσει το τραγουδακι εκανα την αποπειρα μου.Δοκιμαστε το δεν ακουγεται ασχημα.Αφηνετε καθε φορα την Ε και Α να ακουγονται καθως παιζετε τη μελωδια
 

 
Από: giannis, στις 11-08-2009:
μπράβο μεγάλε καλή προσπάθεια. επειδί κι εγω είμαι αρχάριος κ δεν ξέρω πολλά μην με παρεξηγήσεις. πηστέυω πως θέλει άλλη μία νότα σε κάθε τμήμα δηλ...
|----------------------------------------------------------
|----------------------------------------------------------
|----------------------------------------------------------
|----------------------------------------------------------
|--0-2-2-2-3-2-3-2-3--0-2-2-2-3-2-3-2-3----0-0-0-2-0-2-0-2----0-0-0-2-0-2-0-2------0-2-2-2-3-2-3-2-3--0-2-2-2-3-2
|0-----------------3-----------------1-3---------------1-3---------------3-1-0-----------------3------------

και να πω την αλήθεια πάνω στην δικιά σου προσπάθεια το έψαξα για να μην το παίζουν κάποιοι..... και πάλι μπράβο σου συνέχισε
 

 
Από: Νικος, στις 06-07-2009:
Παιδια ο ρυθμός δεν είναι ζειμπεκικος. Αν και ακουγεται ως τέτοιος. Ο ζ. είναι πάντα 9/8. Το κομμάτι αυτό είναι σε 8/8. Μετρηστε να δείτε.
 

 
Από: goofy, στις 29-06-2009:
nick, o rythmos einai zeimpekiko... :)
 

 
Από: (ανώνυμο), στις 20-06-2009:
|------------------------------------------------------------------------------------------------------------------------------
|------------------------------------------------------------------------------------------------------------------------------
|------------------------------------------------------------------------------------------------------------------------------ x2
|------------------------------------------------------------------------------------------------------------------------------
|---0h2--2--2-3-2-3-0-2-0-2---0h2---2--2-3-2-3-0-2-0-2--0-0--0h2-0h2------------0-0--0h2-----------------------
|--0---0--0-----------------3-----0--0----------------3--------------3h5-3h5-1------------3h5-1h3-1p0--0-0-
 
|----------------------------------------------------------------
|----------------------------------------------------------------
|----------------------------------------------------------------
|----------------------------------------------------------------
|--------------0h2p0----------------------0h2p0---------
|-0-1p0-3p0----------3-1-0-0---0-1p0-3p0---------3-1-0-

Για δοκιμάστε…
δεν βγηκε καλα στο πρωτο μηνυμα
 

 
Από: μιχαλης, στις 20-06-2009:
|------------------------------------------------------------------------------------------------------------------------------
|------------------------------------------------------------------------------------------------------------------------------
|------------------------------------------------------------------------------------------------------------------------------ x2
|------------------------------------------------------------------------------------------------------------------------------
|----0h2-2-2-3-2-3-0-2-0-2---0h2-2--2-3-2-3-0-2-0-2-0-0--0h2-0h2--------------0-0--0h2-----------------------
|--0---- 0-0--------------------3-----0-0-------------------3-----------------3h5-3h5-1------------3h5-1h3-1p0--0-0-
 
|----------------------------------------------------------------
|----------------------------------------------------------------
|----------------------------------------------------------------
|----------------------------------------------------------------
|--------------0h2p0--------------------------0h2p0---------
|-0-1p0-3p0---------3-1-0-0---0-1p0-3p0---------3-1-0-

Για δοκιμάστε…
 

 
Από: nick, στις 17-05-2009:
pws paei o rithmos re paidia?
 

 
Από: Χαρης, στις 01-05-2009:
Ναι ειναι αληθεια η F στα "χρονια" ειναι G.Βλεπω τον Μαλαμα στο live και παιζει σολ
 

 
Από: (ανώνυμο), στις 03-04-2009:
Συμφωνώ, η F στα χρόνια γίνεται G.
 

 
Από: σταυρος σαλονικα, στις 30-03-2009:
και   για την ακριβεια   το  F   θα μπορουσε να ειναι  και μια γρηγορη σχεδον σολ ματζορε
 

 
Από: σταυρος σαλονικα, στις 30-03-2009:
ore  tsitsipa  afoy  einai lathos  to F  dose  esy to sosto!!!!!!kata  thn apopsi moy(den tha krino toys parapano) o malamas to kserete oti einai dyskolos sthn kithara,,pisteyo pos paizoyn elatomenes kai ta sxetika opoy den mas bgainei(opos to F),,,kapote omos tha broyme kai to sosto...ego to psaxno akoma!!!! kala paiksimata
 

 
Από: Tsitsipas, στις 20-03-2009:
file bri_lliant... xwris pareksigisi alla to tab einai lathos....kai to prwto F episis einai lathos(ekei p leei "sta xronia")....kali i prospatheia sou omws...

Pantou yparxei mia prigipessa gamwto
 

 
Από: γιάννης, στις 17-03-2009:
το κομμάτι το άρπαξε ο Σωκράτης κάτω απ' το χαλί του Τσιτσάνη...το έχει πει και ο ίδιος...όταν έβαλε στο καλειδοσκόπιο του μυαλού του το "δηλητήριο στη φλέβα" εμφανίστηκε η πριγκηπεσσα...γειά σου ρε σωκράτη...
 

 
Από: dio, στις 07-03-2009:
egw mia xara ti vriskw tin eisagwgi tou bri-liant, apla otan paizeis tin eisagwgi stin xordi A prospathise na paizeis endiamesa k tin E,akougetai pio kala! an dokimaseis na to paikseis stin Am mporei na sou vgei pio kala..
 

 
Από: jospenx, στις 19-02-2009:
dokimaste ligo k ayto.nomizw oti einai pio plires kai pio kala kourdismeno stin Em tis eisagwgis

|----------------------------------------------------------------------
|----------------------------------------------------------------------
|------2-4-4-4-5-4-5-2-4-2-4---2-4-4-4-5-4-5-2-4-2-4-0-2---
|---2------------------------2-----------------------------
|----------------------------------------------------------
|----------------------------------------------------------

|----------------------------------------------------------------------
|----------------------------------------------------------------------
|-2-2-4-2-4-0-2-0-2-0---2-2-2-4--------------------------------
|---------------------3-----------------------------------------------
|----------------------------------------------------------------------
|----------------------------------------------------------------------

|----------------------------------------------------------------------
|----------------------------------------------------------------------
|--2-4-0-2-0------------0---0----------------0-2-0-----------
|-------------3-2-2-2-3---3---3-2-2-2-3--------------3-2-2---
|------------------------------------------------------------
|------------------------------------------------------------
 

 
Από: szabis, στις 16-02-2009:
epitokio δεν το παίζω ειδικός αλλά αρχάριος γαρ, βλέπω ότι θέλει κάποια h στην αρχή τα οποία δεν μπορώ ο ίδιος να βάλω...ο άνθρωπος το 'χει το μουσικό αυτί και το αποτύπωσε καλά.
 

 
Από: bri-lliant, στις 13-02-2009:
koitakste, den exw kan mia akoustiki ekdosi tou tragoudiou, kai me to mpouzouki kai tin kithara apo panw mou einai arketa dyskolo mporw na pw. sigoura xanw kapoies notes. alla pistevw kapoios pou kserei kithara, kai kapoia klimaka, isws tis E na mporesei na to paiksei aneta kai xwris kamia dyskolia. afto einai to geniko pattern sto opoio pataei i eisagwgi kata ti gnwmi mou. an kapoios eixe kai mia acoustic ekdosi tou kommatiou, as to anevasei se kana rapidshare na to akousw :P
 

 
Από: alexis, στις 29-01-2009:
pedia kai go den tin poli paleuo me tin kithara alla nomizo oti lipoun kana 2 notitses....
 

 
Από: epitokio, στις 13-01-2009:
katerina boreis na kaneis copy-paste tin eisagwgi kai na parembaleis tis notes poy nomizeis oti xreiazete. Kai na to steileis olo san sxolio.
 

 
Από: katerina, στις 09-01-2009:
paidia outek gw eimai eidiki..mallon aytodidakti tha lega,alla nomizw pws mporw n voithisw stin eisagwgi..alla dn kserw pws gietai!!!
 

 
Από: epitokio, στις 08-01-2009:
Φίλε bri-lliant χαίρομαι που δεν το παίζεις ειδικός και παρόλο που όπως λες δεν νιώθεις σίγουρος για τις μουσικές σου γνώσεις έκανες την καταχώρηση. Ούτε εγώ είμαι ειδικός γι αυτό και νομίζω οτι καλό θα ήταν ο ειδικός szabis αντί να σου την πει καλύτερα να γράψει τις όποιες διορθώσεις του.
Συνέχισε φίλε bri-lliant
 

 
Από: szabis, στις 07-01-2009:
Παλικάρι προσπάθησε λίγο ακόμα και τσέκαρε μήπως ξέχασες καμιά-δυο νότες όταν το καταχώρησες.