logo

 
 

O Γουίλι, ο μαύρος θερμαστής (tab)

Παπακωνσταντίνου Βασίλης

 

Μουσική/Στίχοι: Μικρούτσικος Θάνος/Καββαδίας Νίκος

Από: Gallagher Rory
Στις: 15-06-2004
(3, με 121 ψήφους)
 
 

Αξιολογήστε την παραπάνω καταγραφή του τραγουδιού:    Ακριβής     Λανθασμένη
Βρήκατε κάποιο λάθος; Δηλώστε το παρακάτω, ή χρησιμοποιήστε την Αποστολή Διόρθωσης.
 
Η χρήση επιτρέπεται μόνο για προσωπική μελέτη και για εκπαιδευτικούς λόγους.
Η παραπάνω καταγραφή δηλώνει την προσωπική γνώμη του αποστολέα για τον τρόπο με τον οποίο μπορεί να παιχτεί το παραπάνω τραγούδι.
 

YouTube

Facebook

 
Σύμφωνα με τα στατιστικά μας, σας προτείνουμε να συνεχίσετε με ένα από τα παρακάτω τραγούδια:
 
 

Σχόλια / Διορθώσεις / Αφιερώσεις:
 
Από: anonymous, στις 07-03-2012:
pedia mporite aplos na apolausete to tragoudi kai na afisete tis grinies stin akri?
 

 
Από: bosss, στις 15-08-2011:
pli kalo alla ego to pezo san t lefteri...pedia iparxi kai 2o solo st kommati?
 

 
Από: eleos, στις 11-06-2011:
re paidia... to sugkekrimeno kommati paizete me pollous tropous...arkei na akougete sosta... ego to paizo etsi :
e|1--------------1---------------0------------------------------
B|---3--1--3--3-----3--3--1--1------1--0--1--1--2--2--2--2--3--3
 

 
Από: leuteris, στις 30-05-2011:

e||---------------------------------------------------------
b||---------------------------------------------------------
g||----9--------------------9-------------8
d||--------11--9--11----11----11-11--9-9----9-8-9--9--10-10-10-11-11
a||---------------------------------------------------------
e||---------------------------------------------------------
 egw etsi to pezw
 

 
Από: stratos, στις 18-06-2010:
παιδια λαθος εκανα .στο τελος, αντ για 7-7-7-7--8-8 ειναι 4-4-4-4--5-5συγνωμη για την απροσεξια.
 

 
Από: stratos, στις 12-06-2010:
Παιδες εγω το εχω βρει στιν τελεθταια χορδη( μι καντινι)
ως εξης. e-------8-5-3-5--5-8-5-5-3-3--7-3-2-3--3-7-7-7-7-8-8
μια χαραειναι ετσι , και ευκολο και κατανοητο πιστευω.
 

 
Από: ozzy123, στις 09-06-2010:
paidia wraia ola auta alla gia t upoloipo tragoudi mporei n ginei kt?
 

 
Από: (ανώνυμο), στις 24-02-2010:
ναι αλλά δεν σε είδα να ανεβάζεις το σωστό τελικά οπότε ξουτ!
 

 
Από: ggf, στις 19-02-2010:
mas douleveis re file? auto to tab den to grafei oute nipio. mathe na akous
 

 
Από: alex321, στις 04-11-2009:
sorry paidia den eida ta alla munhma ta sas exete dikio den exei shmasia se pio tono to paizeis .o rory to exei graψei mia xara
 

 
Από: alex321, στις 04-11-2009:
pisteuw oti to swsto einai tou mykonianGuitarPlayer
 

 
Από: Ritchie Evans, στις 30-09-2009:
paidia o Rory to exei grapsei swsta....aplws to exei mia oktava katw kai anti gia Cm to paizei se Am...o filos mpampis to exei grapsei opws to paizei o Krokidis...ta akornta einai Cm, Bb kai G7...
 

 
Από: K0K0Vi0S*, στις 12-09-2009:
Προς όλους τους *μη πω* το κομμάτι είναι σωστό εξαρχής... ο τόνος αλλάζει.. ο καθένας μπορεί να το παίζει απ' όπου μπορεί να το τραγουδήσει δεν χρειάζεται να ακολουθούμε το cd...
 

 
Από: ανωνυμος, στις 11-07-2009:
νομιζω πως απο τον ανωνυμο 27-3-2009 κατι μου λειπει.. μηπως ειναι ετσι??
1----------1------------1-----------0----------------------
2-------------3-1-3--3-----3-3-1-1----1-1-2-2-2-3----------3----------------------------------------------------------
4----------------------------------------------------------
5----------------------------------------------------------
6----------------------------------------------------------
 μηπως λεω...
 

 
Από: ΚΑΠΕ, στις 06-07-2009:
ΤΟ ΣΩΣΤΟ ΕΙΝΑΙ ΑΠΟ ΤΝ ΑΝΩΝΥΜΟ 1313313311011112233
 

 
Από: anonymos, στις 04-05-2009:
ena allo site gia ellinika tagoudia einai to:www.kithara.gr
 

 
Από: tazakos, στις 28-04-2009:
mipos xerete kanena alo site gia ellinika tragoudia
 

 
Από: (ανώνυμο), στις 27-03-2009:
Etc einai swsto....
 

 
Από: (ανώνυμο), στις 27-03-2009:
1----------1------------1-----------0----------------------
2-------------3-1-3--3-----3-3-1-1----1-1-1-1-2-2-3--------3----------------------------------------------------------
4----------------------------------------------------------
5----------------------------------------------------------
6----------------------------------------------------------
 

 
Από: Γιωργος, στις 11-02-2009:
Ρουσσετος η' Κροκοιδης
 

 
Από: solonas cy, στις 21-06-2008:
tlxstn stn epiphone epd ine ligo pio varetos o ixos apo alles ki8ares nmz xriazete i nota gia gemisma
 

 
Από: solonas cy, στις 21-06-2008:
nmz pos xanni mia nota (nomizp e..)
1-----------------------------------------------------
2-----------------------------------------------------
3-------------5-------------------5-------------------
4-----------------7-5-7----7-7---------7-7----5-5-----
5-----------------------------------------------------
6-----------------------------------------------------
 
1-----------------------------------------------------------
2-----------------------------------------------------------
3-----------4-----------------------------------------------
4----------------5-4-5---5-6-6-6-6-7-7----------------------
5-----------------------------------------------------------
6-----------------------------------------------------------
 

 
Από: Gipas, στις 16-03-2008:
Re paidia sas ekliparw na mou breite mou ta pliktra
pou solaroun kata tin diarkeia tou tragoudiou, i kapoio SITE na mpw!Einai megali anagi!!!!
 

 
Από: μπάμπης, στις 02-07-2007:
paidia egw live paizw ayto:
e||--11-8----8-8-11-8-8------
b||-------11------------11-11

e||-10--------------------------8-8
b||----11-10-11-11-12-12-12-12-----

ayto einai to swsto!
 

 
Από: skoullos , στις 13-06-2007:
pedia prin liges vdomades arxisa kithara k akm na paw mathimata k an borite peste m ti simeni to 1 ,2.to 1=e k to 2=b??????
 

 
Από: maria, στις 14-05-2007:
μπορει ο άνθρωπος να το έχει γράψει λαθος αλλά αυτό που ξέρω είναι οτι το κομμάτι είναι κορυφαίο .Αγγιζει την τελειότητα τόσο απο στίχους και μουσική οσο και απο ερμηνεία όταν το τραγουδάει ο Βασιλάκης
 

 
Από: PAMBOS, στις 15-03-2007:
e||-------------------------------------------
b||--1-------1--------------------------------
g||---2-0-2----2-2--0-0-0-0-0-0-0-2-2-2-2-3-3-
d||-------------------------------------------
a||-------------------------------------------
e||-------------------------------------------
 

 
Από: Γιώργος Ζ, στις 24-10-2006:
-Τα πράγματα είναι απλά αν το κομμάτι ξεκινάει από τονική Am ξεκινάει με την σχετική ματζόρε C. Παίζουμε πεντατονική Am με bending ή χρωματικές όπως βολέβει.
 

 
Από: PhantomTiger, στις 30-06-2006:
Vasi tou tonou opos einai sto cd "Stavros Tou Notou" ta sosta tabs einai tou/tis Cuenca_60R...
 

 
Από: Messie, στις 10-06-2006:
Ολα σωστα ειναι παιδια εξαρταται ομως απο την τονικοτητα του τραγουδιου.Στην εκδοση που εχω εγω παιζει απ Cm-Bb-G7
(σ'ολο το τραγουδι ειναι αυτες οι τρεις συγχορδιες) και το σολο ειναι αυτο που στελενει ο Cuenca η ο ανωνυμος που ειναι μια οκταβα κατω. Αμα το ξεκινατε απο αλλο τονο θα ειναι αλλου-ψαξτε να το βρειται.
Στο τελος επισης παιζει και κατι τετοιο:
e||--3----------3--------------------------------------------------
B||----6-4--------6-4-3h4p3----6-4------6-4------------------------
G||--------5-----------------------5-3------5-3-5-5----------------
D||----------------------------------------------------------------
A||----------------------------------------------------------------
E||----------------------------------------------------------------
 

 
Από: ΚΑΘΥΣΤΕΡΗΜΕΝΟ κγ, στις 29-05-2006:
μας συμφέρει ο Καββαδίας κατα τ αλλα πολυ εμπνευσμενοι οι στιχοι και η μουσικη
 

 
Από: ανδρεας, στις 17-05-2006:
ο pio sostos ine o kyriakos ola ta alla ine lathos o kroxidis to pezi opos to exi grammeno o filos kyriakos... ti na sas po akute to cd!
 

 
Από: chris, στις 07-05-2006:
guys to kommati einai apo tin Cm ara pezete kanonika apo tin E sto 11o diastima...afto einai to swsto...to paizw edw kai 6 xronia k osous akousa na to paizoun apo ekei to paizoun! tnx!
 

 
Από: Takis, στις 24-04-2006:
Einai teleio kai den thelei kamia diorthosi
 

 
Από: KYRILLOS, στις 09-03-2006:
ΓΕΙΑ ΣΑΣ ΠΑΙΔΙΑ!ΕΙΜΑΙ ΝΕΟΣ ΣΤΗ ΣΕΛΙΔΑ ΣΑΣ ΚΑΙ ΕΧΕΙ ΛΙΓΟ ΚΑΙΡΟ ΠΟΥ ΑΓΟΡΑΣΑ ΚΙΘΑΡΑ!ΘΑ ΘΕΛΑ ΚΑΠΟΙΟΣ ΝΑ ΜΟΥ ΕΞΗΓΗΣΕΙ ΤΙ ΣΗΜΑΙΝΟΥΝ ΣΤΙΣ ΤΑΜΠΛΑΤΟΥΡΕΣ ΟΙ ΑΡΙΘΜΟΙ. Π.Χ ΣΤΗΝ ΤΡΙΤΗ ΧΟΡΔΗ ΕΧΕΙ ΕΝΑ 5 ΚΛΠ, ΤΙ ΣΗΜΑΙΝΕΊ??ΕΥΧΑΡΙΣΤΩ
 

 
Από: ΓΙΩΡΓΟΣ, στις 12-02-2006:
ΜΑΣ ΚΟΥΡΑΣΑΤΕ ΣΤΕΙΛΤΕ ΤΟ ΣΩΣΤΟ ΝΑ ΤΕΛΕΙΩΝΟΥΜΕ
 

 
Από: apelpismenos, στις 30-01-2006:
AS MAS PEI RE PAIDIA ENAS TO SWSTO.
 

 
Από: fonis, στις 29-01-2006:
επιτελους ας το γραψει ενας που το ξερεινπολλες αποψεις εχουμε μπερδευτει πιο ειναι τελικα το σωστο
 

 
Από: MykonianGuitarPlayer, στις 08-01-2006:
ola osa exete grapsei einai LATHOS tou Papakwnstantinou einai apo C kai to solo apo thn e-11 h B-4 kai oxi apo G-8 kai tetoies Arloumbes kai kataligei se B-13 h G-5.
 

 
Από: kyriakos, στις 11-12-2005:
file m lefteri kanis ta efkola dyskola to sygkekrimeno kommati ine apo ta pio efkola tabs o Gallagher Rory ine poly sostos apla se ali tonikotita to kommati xekina sto
e--7-------------7--------------------6--------
b----9--7--9---9---9--9--77---9---11----7-6-7--7-8-8-8-8-9-11h12
 

 
Από: (ανώνυμο), στις 07-12-2005:
e|-----------------------------------------------------|
B|-----------------------------------------------------|
G|-8-5---5----5-8-5-5-------7-----------4-4-4-4-5-5----|
D|-----8--------------8-8-----8-7-8---8----------------|
A|-----------------------------------------------------|
E|-----------------------------------------------------|
 

 
Από: stelios, στις 27-08-2005:
afieromeno sto geo kai ston xontro
 

 
Από: Cuenca_60R, στις 22-06-2005:
Oxi sorry lathos ekana swsto einai to kommati...alla se allh tonikothta apo ayth pou to paizei o Vasilis.Alla orismenoi edw den 3eroun na paizoun me tab...ap oti katalava
 

 
Από: makaria, στις 11-02-2005:
telika brika tous stixous se aali selida. sugnwmi gia to proigoumeno sxolio
 

 
Από: makaria, στις 11-02-2005:
den blepw oute ena stixo. einai i prwti fora pou simbeni sto site afto.
 

 
Από: lefteris, στις 03-01-2005:
Αυτό το tab ήταν το αποκορύφωμα χιλιάδων ίσως λαθών που υπάρχουν σε αυτό το site.Συμβουλεύω τους αναγνώστες να επανεξετάζουν πολλές φορές την προτεινόμενη εκτέλεση κάθε κομματιού.Θα ήταν καλύτερο ορισμένες δημοσιεύσεις να αρκεστούν στους στίχους παρά να "βιάζουν" τις εμνεύσεις των δημιουργών.
 

 
Από: Cuenca_60R, στις 14-11-2004:
Einai ligo lathos...Mazi me to Cd egw paizw to e3hs...

1-----11----8----8----11--8--8--6--6------------------

2-------------11--------------------------------------


1--10---6-----6----6-7-7-7-7-8------------------------

2----------10-----------------------------------------