logo

 
1993 - Ξεσσαλονίκη

Ρόδες

Ξύλινα Σπαθιά

 

Μουσική/Στίχοι: Παυλίδης Παύλος/Παυλίδης Παύλος

Από: KaTaDiKoS
Στις: 12-11-2000
(3.5, με 80 ψήφους)
 
 

Αξιολογήστε την παραπάνω καταγραφή του τραγουδιού:    Ακριβής     Λανθασμένη
Βρήκατε κάποιο λάθος; Δηλώστε το παρακάτω, ή χρησιμοποιήστε την Αποστολή Διόρθωσης.
 
Η χρήση επιτρέπεται μόνο για προσωπική μελέτη και για εκπαιδευτικούς λόγους.
Η παραπάνω καταγραφή δηλώνει την προσωπική γνώμη του αποστολέα για τον τρόπο με τον οποίο μπορεί να παιχτεί το παραπάνω τραγούδι.
 
Αλλαγή τόνου: ημιτόνια

YouTube

Facebook

 
Σύμφωνα με τα στατιστικά μας, σας προτείνουμε να συνεχίσετε με ένα από τα παρακάτω τραγούδια:
 
 

Σχόλια / Διορθώσεις / Αφιερώσεις:
 
Από: Τασος, στις 26-08-2011:
pap-x γτ η ΝΤΟ ΜΑΤΖΟΡΕ ΚΑΙ Η ΜΙΝΟΡΕ δν καθοριονται απτην τριτη τους η μια εχει ΜΙ και η αλλη εχει ΜΙ ΥΦΕΣΗ..
 

 
Από: Nickkontos, στις 29-11-2009:
Σόρρυ παιδιά, διαγράψυε το πάνω...

Bass main riff:
    ρόδες... στις μπότες... νέον...        σούπερ...     ολα γυρίζουν σαν τρελα ρόδες που παν στο που - θεν - ά
G--------------------------------------------------------------------------------------------------------------------
D--------------------------------------------------------------------------------------------------5-----------------
A------------55..--------------------------33..------------------------------77..----------5555------7--5------------
E---33..--------------------55..-------------------------55..---------------------------------------------7--33..----

Bass & Guitar Bridge:
G---------------------------------      
D----------3----55-3-5-3-55-3-----      x5
A------5-----5--------------------
E---------------------------------

Bass solo:
           x2              x2            x2                x2          x2
G-------------------------7-8-8--------------------------------9-10-10-------------11-12-12-------
D--------7-8-8---------8---------8---------8-10-10----------10---------10-------12----------12----
A------8-------8-----6------------------10--------10------8------------------10-------------------
E----6--------------------------------8-----------------------------------------------------------


             x2                    x2                     x2
G-------------------------------------------------------9-10-10---------
D--------12-13-13--------------8-10-10--------------10----------10------
A------13----------13-------10-----------10-------8---------------------
E----11--------------------8--------------------------------------------
 

 
Από: NICKKONTOS, στις 29-11-2009:
Bass main riff:
         ρόδες...    στις μπότες...      νέον...        σούπερ...     ολα γυρίζουν σαν τρελα ρόδες που παν στο που - θεν - ά
G------------------------------------------------------------------------------------------------
D------------------------------------------------------------------------------5-----------------
A-----------55..------------------33..--------------------77..--------5555----7--5-----------
E---33..----------------55..--------------55..----------------------------------------7--33..--

Bass & Guitar Bridge:
G--------------------------------------      x5
D----------3----55-3-5-3-55-3-----
A------5-----5-----------------------
E-------------------------------------

Bass solo:
                x2                  x2               x2                x2 x2
G-------------------------7-8-8--------------------------------9-10-10--------------11-12-12-----
D--------7-8-8---------8------8--------8-10-10----------10-----------10-------12-------------12
A------8-------8-----6---------------10--------10------8----------------------10-------------------
E----6-----------------------------8--------------------------------------------------------------------


                  x2                            x2                     x2
G----------------------------------------------------------9-10-10----------
D--------12-13-13--------------8-10-10-----------10------------10------
A------13----------13-------10-----------10-----8-------------------------
E----11--------------------8-------------------------------------------------
 

 
Από: giovannis, στις 20-12-2008:
exei dikio o Ody. Akougetai kalytera me power chords
 

 
Από: satanas, στις 05-11-2008:
stin teleftaia strofi den leei mestin avisso xtizoun ton paradeiso alla mono''stin avisso xtizoun ton paradeiso'' kata ta alla einai poli swsto!!!!!
 

 
Από: pap-x, στις 26-10-2007:
spirus H τριτη δεν καθοριζει παντοτε αν η συγχ. ειναι μινόρε ή ματζόρε. π.χ. DO+ kai DO-
 

 
Από: du st_cryner, στις 01-10-2007:
Οι συγχορδιες πεμπτης την τριτη νοτα της κανονικης συγχωρδιας./ >μια κοινωνικη βοηθεια για τους νεουσ κιθαριστες , και οχι για τ ψωνια!!!!!:! δηλαδη τον Ανεστη Χρισοστομιδη , /Καβαλα 3ο λυκειο !!!!!!!!!!!!!!Β4
 

 
Από: spirus, στις 23-06-2007:
Ρε, για τα ακόρντα πέμπτης δεν παίζεις απαραίτητα 2 χορδές... ακόρντα πέμπτης ή power chords ή δυναμικές συγχορδίες (ή no3rd καλύτερα) λέγονται τα ακόρντα που τους έχεις αφαιρέσει την τρίτη που τα αποτελεί. Αυτήν που καθορίζει αν 8α είναι ματζορε ή μινορε η συγχορδία...Έτσι δεν είναι ούτε ματζόρε,ούτε μινόρε αυτο που παίζεις. χρησιμοποιούνται συνεχώς στη rock...για να βγει καλύτερος ο ήχος με την παραμόρφωση. cool το τραγούδι by the way...
 

 
Από: ΒΑΣΙΛΗΣ, στις 19-06-2007:
ΟΙ ΠΕΜΠΤΕΣ Η ΑΚΟΡΝΤΑ ΠΕΜΤΗΣ ΕΙΝΑΙ ΜΙΣΑ ΑΚΟΡΝΤΑ.ΔΗΛ.ΠΑΙΖΟΥΝ 2 ΧΟΡΔΕΣ. Η Ε ΚΑΙ Η Α.ΓΙΑ ΝΑ ΒΡΕΙΣ ΤΟ ΟΝΟΜΑ ΤΟΥ ΑΚΟΡΝΤΟΥ ΒΡΙΣΚΕΙΣ ΤΗΝ ΤΟΝΙΚΗ ΤΟΥ ΣΤΗ Ε ΧΟΡΔΗ ΚΑΙ ΒΑΖΕΙΣ ΤΟ 3ο ΔΑΧΤΥΛΟ 2 ΤΑΣΤΑ ΠΑΡΑΚΑΤΩ ΣΤΗ Α.ΦΙΛΕ ΣΚΟΡΠΙΟΝ ΕΛΠΙΖΩ ΝΑ ΜΕ ΚΑΤΑΛΑΒΕΣ...
 

 
Από: Scorpion, στις 26-04-2007:
μπραβο asterix καλα τα λες
o ody ti eωωοει με ακορντα 5ης??
 

 
Από: τελλας, στις 16-04-2007:
ρε παιδια γιατί δεν το γράψατε εσείς και ειστε όλο παράπονα δεν νομίζω να το γράφατε καλύτερα παντος
 

 
Από: Ody, στις 30-01-2007:
Παίξε το τραγούδι με power chords (ακόρντα πέμπτης). Βγαίνει καλύτερο. Το δικό σου είναι πολύ πρίμο.
 

 
Από: Kerkyra, στις 15-05-2005:
ΣΥΜΦΩΝΟ ΜΕ ΤΟΝ ΑΣΤΕΡΙΧ! ΠΟΙΟΣ ΑΣΧΕΤΟΣ ΑΦΕΙΕΡΩΣΕ ΑΥΤΗ ΤΗΝ ΤΕΛΕΙΑ ΤΡΑΓΟΥΔΑΡΑ, ΧΩΡΙΣ ΝΑ ΞΕΡΕΙ ΤΑ ΛΟΓΙΑ!!!!!!!!!!
 

 
Από: Asterix, στις 20-11-2004:
Λάθος:και μπότες τρίζουνε σίδερα γυαλίζουνε
Σωστό:και ρόδες τρίζουνε σίδερα γυαλίζουνε