logo
  
 

Αντεκδίκηση και υπομονή

Χάσμα

 

Μουσική/Στίχοι: Χάσμα


A ουσάκ (*)
Στις: 29-06-2007
(3.1, με 21 ψήφους)
 
 
                 
                           
                                            
                                           
                   
                             
                                     
                                     
 
                       
                                            
                         
                                       

 
(*) Η τονικότητα του τραγουδιού εκτιμήθηκε αυτόματα από τις συγχορδίες του. Σε περίπτωση λάθους στείλτε διόρθωση.
Αξιολογήστε την παραπάνω καταγραφή του τραγουδιού:    Ακριβής     Λανθασμένη
Βρήκατε κάποιο λάθος; Δηλώστε το παρακάτω, ή χρησιμοποιήστε την Αποστολή Διόρθωσης.
 
Η χρήση επιτρέπεται μόνο για προσωπική μελέτη και για εκπαιδευτικούς λόγους.
Η παραπάνω καταγραφή δηλώνει την προσωπική γνώμη του αποστολέα για τον τρόπο με τον οποίο μπορεί να παιχτεί το παραπάνω τραγούδι.
 
Αλλαγή τόνου: ημιτόνια
 
Τραγουδάτε μαζί με άλλους; Με αυτό τον κωδικό μπορείτε να δείτε όλοι γρήγορα το ίδιο τραγούδι:
QR-code
 

Σχόλια / Διορθώσεις / Αφιερώσεις:
 
Από: Xasmaaaa, στις 29-12-2013:
Intro : 
E---------6-6--6--6---------------------------------------------------
B-9-9-7-6-6--6--6--6--9-9-11-9-6--------------------------------------
G-8-8-6-6-6---6--6--6-8-8-10-8-6--------------------------------------
D---------8--------------------------------------------------------9-8
A---------8---------------------------6-9-9-9-8-6---------6-9-9-9-8---
E---------6---------------------6-8-9------------6--6-8-9-------------
A#m             C#m
   Αντεκδίκηση  και υπομονή
G#m                       D#C  
είναι δυο λέξεις που με βία ταιριάζουν μαζί
A#m               C#m
κι είναι εκδήλωση προσβλητική
G#m                  D#
η εφαρμογή της εξουσίας σε κάθε μορφή
 
Αντεκδίκηση και υπομονή
παλεύουν χρόνια στο μυαλό μας και στη λογική
μα είναι λύτρωση μοναδική
η καταστροφή της εξουσίας σε κάθε μορφή.
 

 
Από: Giannis, στις 29-12-2013:
Intro : E---------6-6--6--6---------------------------------------------------
B-9-9-7-6-6--6--6--6--9-9-11-9-6--------------------------------------
G-8-8-6-6-6---6--6--6-8-8-10-8-6--------------------------------------
D---------8--------------------------------------------------------9-8
A---------8---------------------------6-9-9-9-8-6---------6-9-9-9-8---
E---------6---------------------6-8-9------------6--6-8-9-------------
A#m             C#m
   Αντεκδίκηση  και υπομονή
G#m                       D#C  
είναι δυο λέξεις που με βία ταιριάζουν μαζί
A#m               C#m
κι είναι εκδήλωση προσβλητική
G#m                  D#
η εφαρμογή της εξουσίας σε κάθε μορφή
 
Αντεκδίκηση και υπομονή
παλεύουν χρόνια στο μυαλό μας και στη λογική
μα είναι λύτρωση μοναδική
η καταστροφή της εξουσίας σε κάθε μορφή.
 

 
Από: τζονι, στις 16-01-2011:
paidia oi xasma to paizoun 1 hmiitonio pio panw
 

 
Από: Γιάννης, στις 12-12-2010:
Am             C
   Αντεκδίκηση  και υπομονή
G                        D       C   D    Am
είναι δυο λέξεις που με βία ταιριάζουν μαζί
Am               C
κι είναι εκδήλωση προσβλητική
G                    D      C  D   Am
η εφαρμογή της εξουσίας σε κάθε μορφή
 
Αντεκδίκηση και υπομονή
παλεύουν χρόνια στο μυαλό μας και στη λογική
μα είναι λύτρωση μοναδική
η καταστροφή της εξουσίας σε κάθε μορφή
 

 
Από: (ανώνυμο), στις 24-07-2010:
poooo na anevaze kapoios kai tin eisagogi me tin akoustiki! :D eeeeee?! :P
 

 
Από: Pavlos, στις 20-09-2007:
Poli oreos re Xari!