logo
  
2000 - Βραχνός Προφήτης

Οι τρεις ανθοί

Καλημέρη Λιζέτα

 

Μουσική/Στίχοι: Παπακωνσταντίνου Θανάσης/Παπακωνσταντίνου Θανάσης


F# μινόρε (*)
Από: Χρόνης
Στις: 22-05-2008
(3, με 23 ψήφους)
 
 
                                 
 
                                           
                                            
                                     
                                       
                                                    
                                                 
                                                   
                                                  
 
                                                 
                                                 
                                                     
                                            
 
                                               
                                                 
                                              
                                           

 
(*) Η τονικότητα του τραγουδιού εκτιμήθηκε αυτόματα από τις συγχορδίες του. Σε περίπτωση λάθους στείλτε διόρθωση.
Αξιολογήστε την παραπάνω καταγραφή του τραγουδιού:    Ακριβής     Λανθασμένη
Βρήκατε κάποιο λάθος; Δηλώστε το παρακάτω, ή χρησιμοποιήστε την Αποστολή Διόρθωσης.
 
Η χρήση επιτρέπεται μόνο για προσωπική μελέτη και για εκπαιδευτικούς λόγους.
Η παραπάνω καταγραφή δηλώνει την προσωπική γνώμη του αποστολέα για τον τρόπο με τον οποίο μπορεί να παιχτεί το παραπάνω τραγούδι.
 
Αλλαγή τόνου: ημιτόνια

YouTube

Facebook

 
Σύμφωνα με τα στατιστικά μας, σας προτείνουμε να συνεχίσετε με ένα από τα παρακάτω τραγούδια:
 
 
Βρέθηκαν και άλλες εκδόσεις αυτού του τραγουδιού (ή τραγούδια με παρόμοιους στίχους):
 

Σχόλια / Διορθώσεις / Αφιερώσεις:
 
Από: Φώτης , στις 23-08-2019:
Η εισαγωγή με το αφτί μου βγαίνει κάπως έτσι. Υπεροχο τραγούδι και πολυ καλη ταμπλατουρα.

E-------------------------------------------------------
B--------------------------------------2-0h2p0-------0-1 
G-----2-----1--2222-1-1-------2-----1----------2-1-2----
D-----0---2-2--0000-022-------0---2-2-------------------
A---4---2---2-------------4-----2---2-------------------
E-2---------------------2-------------------------------

E------------------------------------------------------------
B--------------------------------------2-0h2p0---------------
G-----2-----1--2222-1-1-------2-----1----------2-1---2-1h2p1-
D-----0---2-2--0000-022-------0---2-2--------------2--------4
A---4---2---2-------------4-----2---2------------------------
E-2---------------------2-------------------------------------
 

 
Από: Ovation, στις 28-01-2012:
Capo στο δεύτερο ταστο και -2 ημιτονια. Εύκολα και απλά. Παίζει και κάτι γέφυρες ενδιάμεσα πολυ εύκολες