logo

 
1974 - Τα τραγούδια του δρόμου

Ο μέρμηγκας

Λοΐζος Μάνος

 

Μουσική/Στίχοι: Λοΐζος Μάνος/Λοΐζος Μάνος

Από: pityian
Στις: 27-08-2002
(3.3, με 75 ψήφους)
 
 

Αξιολογήστε την παραπάνω καταγραφή του τραγουδιού:    Ακριβής     Λανθασμένη
Βρήκατε κάποιο λάθος; Δηλώστε το παρακάτω, ή χρησιμοποιήστε την Αποστολή Διόρθωσης.
 
Η χρήση επιτρέπεται μόνο για προσωπική μελέτη και για εκπαιδευτικούς λόγους.
Η παραπάνω καταγραφή δηλώνει την προσωπική γνώμη του αποστολέα για τον τρόπο με τον οποίο μπορεί να παιχτεί το παραπάνω τραγούδι.
 
Αλλαγή τόνου: ημιτόνια

YouTube

Facebook

 
Σύμφωνα με τα στατιστικά μας, σας προτείνουμε να συνεχίσετε με ένα από τα παρακάτω τραγούδια:
 
 

Σχόλια / Διορθώσεις / Αφιερώσεις:
 
Από: (ανώνυμο), στις 31-05-2019:
Εγώ αντί για Λα παίζω Ντο και αντί για Μι Σολ
 

 
Από: krana, στις 11-12-2012:
λίγο καλύτερο:

Intro:
e|-----------0--------------------------0-------------------|
B|--------2-----3-2-0---2--0---------2-----3-2-0------------|
G|-----2--------------2-----------2-------------------------|
D|------------------------------------------------2--0------|
A|--0-----------2--------------0-----------2-----------2-0--|
E|--------2-------------0--2-4-------2----------------------|
0:01/0:54/1:48

e|-----------0----------------------------------------------|
B|--------2-----3-2-0---2--0---------3-2-3--0----5-3-5------|
G|-----2--------------2-----------2-------------------------|
D|-----------------------------------0-----------2---0------|
A|--0-----------2--------------0------------2----------2-0--|
E|--------2-------------0--2-4------------------------------|
0:09/1:02/1:56
 

 
Από: krana, στις 10-12-2012:
ορίστε η μελωδία που παίζει στα πνευστά. τα πρίμα είναι γραμμένα στις 3 πρώτες χορδές (e, B, G) και τα μπάσα στις 3 τελευταίες (D, A, E). με λίγη εξάσκηση βγαίνει σε μία κιθάρα, διαφορετικά σε δύο ξεχωριστές.

Intro:
e|-----------0----------------------------------------------|
B|--------2-----3-2-0---2------------2--5--3-2--------------|
G|-----2--------------2----4------2------------4------------|
D|------------------------------------------------2--0------|
A|--0-----------2--------------0-----------2-----------2-0--|
E|--------2-------------0--2-4-------2----------------------|
0:01/0:54/1:48

e|-----------0------------------------------------------|
B|--------2-----3-2-0---2------------3-2-3-------5-3-5--|
G|-----2--------------2----4------2---------4-----------|
D|-----------------------------------0-----------2------|
A|--0-----------2--------------0------------2-----------|
E|--------2-------------0--2-4--------------------------|
0:09/1:02/1:56
 

 
Από: patoho, στις 14-09-2012:
Στο τελος του ρεφρεν μου ακουγεται ενταξει η E. Απλα ακολουθει και η A. Εμενα ετσι μου ακουγεται καλυτερα...
 

 
Από: γιωργος , στις 20-08-2012:
to kamati einai gamato mhn lete maalakies
 

 
Από: Μιχάλης, στις 22-03-2012:
Ξένια,μια συμβουλή θα σου δώσω.Μην ασχολείσαι με πράγματα που δεν καταλαβαίνεις.Και κυρίως μην τα σχολιάζεις!!!!!!!!
 

 
Από: (ανώνυμο), στις 21-03-2012:
ksenia min anisixis. oute si ftais oute i  mana sou. autos pou tin am*se ftaiei
 

 
Από: Ξένια δελιγιαννη, στις 18-11-2011:
ΧΑΛΙΑ ΑΠΟΡΏ ΠΩΣ ΤΟ ΑΚΟΎΤΕ ΚΑΙ ΠΟΙΟΣ ΈΓΡΑΨΕ ΑΥΤΈΣ ΤΙΣ ΜΠΟΎΡΔΕΣ ΟΎΤΕ Η ΜΆΝΑ ΤΟΥ ΔΕΝ ΤΟΝ ΞΕΡΕΙΙ
ΑΠΑΙΣΙΟ ΑΠΑΙΣΙΟ
 

 
Από: ΓΙΑΝΝΗΣ, στις 29-09-2010:
Στα E μπαινει Em.
 

 
Από: (ανώνυμο), στις 08-04-2010:
einai apo ta oraiotera kommatia
 

 
Από: (ανώνυμο), στις 02-03-2010:
Ναι, κάνετε αστεία με το Καρβέλα και το Μπουγά λες και ο Μάλαμας είναι της ίδιας στόφας, είστε και πολύ έξυπνοι.
 

 
Από: ντιρνταγουθ, στις 13-09-2009:
έχω την εντύπωση ότι και στο τέλος έχει Α και όχι Ε.
 

 
Από: g, στις 11-08-2009:
tou karvela einai kai to xei pei se epanaktelesi o bougas
 

 
Από: rockpaul999, στις 08-06-2009:
mano ...mas leipeis file...
 

 
Από: σοτηρης, στις 12-03-2009:
μπορει καποιος να γραψει τους αρπισμους γιατι μου φαινονται δυσκολοι..η τουλαχιστον ενα βασικο πλανο αυτων..
 

 
Από: kostas, στις 26-01-2009:
ολοσωστο ειναι το κομματι. συγχαρητηρια στον αποστολεα.
 

 
Από: lamp, στις 13-01-2009:
η Ε στο τελος του ρεφρεν ειναι σωστη;
 

 
Από: peri, στις 04-01-2009:
το κομματι παντως τα ΣΠΑΕΙ
 

 
Από: γιαννης, στις 03-10-2008:
ναι του μαλαμα!!!!και το "σαν βγω απ'αυτη τη φυλακη"ειναι του Σφακιανακη!
 

 
Από: mpliax, στις 15-11-2007:
peripou!!!!!!!   basika o Malamas to eipe sto cd me tis epanekteleseis twn kommatiwn tou Loizou pou symmetexei episis i Melina kana me to "ki egw san polh" o Lidakis me to "ax ta matia sou" kai diaforoi alloi.
 

 
Από: (ανώνυμο), στις 19-06-2007:
JaNick kamia sxesi...apla o malamas to leei kamia fora sta live tou omologoumenws poli wraia kai goustarei to koino
 

 
Από: JaNick, στις 28-05-2007:
Ρε σεις του Μάλαμα δεν είναι το τραγούδι??
 

 
Από: Μήτσος ΜΑΡΑΚΙ, στις 17-09-2005:
ΜΑΝΟ ΕΙΣΑΙ Ο ΚΑΛΥΤΕΡΟΣ