logo

 
2003 - Οι περιπέτειες ενός προσκυνητή

Ο κόσμος που αλλάζει

Ιωαννίδης Αλκίνοος

 

Μουσική/Στίχοι: Ιωαννίδης Αλκίνοος/Ιωαννίδης Αλκίνοος

Στις: 01-06-2005
(3.2, με 56 ψήφους)
 

Αξιολογήστε την παραπάνω καταγραφή του τραγουδιού:    Ακριβής     Λανθασμένη

Βρήκατε κάποιο λάθος; Δηλώστε το παρακάτω, ή χρησιμοποιήστε την Αποστολή Διόρθωσης.

 

Η χρήση επιτρέπεται μόνο για προσωπική μελέτη και για εκπαιδευτικούς λόγους.
Η παραπάνω καταγραφή δηλώνει την προσωπική γνώμη του αποστολέα για τον τρόπο με τον οποίο μπορεί να παιχτεί το παραπάνω τραγούδι.

 

Αλλαγή τόνου: ημιτόνια

Απόκρυψη tablature

Απόκρυψη συγχορδιών

Εκτύπωση

YouTube

Facebook

 

Σύμφωνα με τα στατιστικά μας, σας προτείνουμε να συνεχίσετε με ένα από τα παρακάτω τραγούδια:
 
Βρέθηκαν και άλλες εκδόσεις αυτού του τραγουδιού (ή τραγούδια με παρόμοιους στίχους):
 
 

Σχόλια / Διορθώσεις / Αφιερώσεις:
 
Από: vaggelis, στις 19-06-2012:

  Am             F                  Dm           G
e---------------------------------------------------------------------]
B------------------------1----------------3----------3-----3--1p1---]
G--------2-----------2----------------2-----------------------------]
D-----2----------3-----------------0--------------------------------]
A-0-----------------------------------------------2-----------------]
E------------------------------------------------3-------------------]
 

 
Από: vaggelis, στις 19-06-2012:
   Am                   F                         Dm             G
e---------------------------------------------------------------------]
B------------------------1----------------3---------------3--1p1---]
G--------2-----------2----------------2-----------------------------]
D-----2----------3-----------------0--------------------------------]
A-0-----------------------------------------------2-----------------]
E------------------------------------------------3-------------------]
 

 
Από: καθολου, στις 22-01-2012:
λοιπον....ο ανωνυμος εχει αδικο....δεν παει ετσι το ρεφρεν....το ρεφρεν ποαει ετσι οπως ειναι στν ταμπλατουρα...
 

 
Από: StaMike!, στις 15-12-2010:
lipon apelpismeni ki8aristria ta e,B,G,D ktl einai oi notes me sta agglika p einai A,B,C,D,E,F,G dld LA,SI,NTO,RE,MI,FA,SOL pano sti tab oi diakekomenes grrammes einai san tis xordes i e einai i mi kato k i E einai i mi pano (e=mi,B=SI,G=SOL,D=RE,A=LA,E=MI) elpizw na ktlvs.. ;)
 

 
Από: τιμωρια, στις 14-12-2010:
ευχομαι στον ανωνυμο και στον καθενα που το παιζει τρανος κιθαριστας και παει να κομπλαρει ατομα πανω στην προσπαθεια να μην του ξανασηκωθει.αυτο ακριβως ολοι γυρω του να γαμανε κ αυτος να ναι μονος του
 

 
Από: L.E.D, στις 07-05-2010:
To trago0di gamaei!!! To kalutero to0 pistevw... Oloswsto to tab!!
 

 
Από: amadeus, στις 27-04-2010:
gt re asxete anwnyme t einai o alkinos dyskolo na paixtei???....lol...an 8s na deis t einai dyskolo paikse paco de lucia axete ....basika oloi eiste gia tn poutso...prospa8eite na ypotimhsete tous gyro sas g na anevete eseis lol.... MLKSSSSSSSSSSSSSS MLKSSSSSSSSSSsssss
 

 
Από: (ανώνυμο), στις 23-04-2010:
re apelpismenh ki8aristria edw dn ksereis tis notes kai 8es na vgaleis ki alkinoo???paikse kltra kana "kai perasame omorfa"...
 

 
Από: Elenina, στις 22-07-2009:
En xani o alkinoos thelo t0n.....................ti n kamo
 

 
Από: αναστασια, στις 22-06-2009:
η φωνη του Αλκινοου ζεστη και ερωτευσιμη!!!!!
 

 
Από: αναστασια, στις 19-06-2009:
καλα ρε εβαγγελε μν συγχιζεσαι...δν ειναι υποχρεωμενοι ολοι να ξερουν......!!!
 

 
Από: αναστασια, στις 19-06-2009:
Am=λα μινορε,Β=σι ματζορε,G=σολ ματζορε,D=ρε ματζορε,A=λα ματζορε,Ε=μι ματζορε,F=φα ματζορε και Dm=ρε μινορε....τωρα δακτυλοθεσια ελπιζω να ξερεις για καθε συγχορδια γτ ειναι λιγο δυσκολο να σε βοηθησω σ αυτο!!
 

 
Από: Eleni!, στις 19-05-2009:
alkinoo m ise kataplixtikos!!!!!!!!!!!!!!!!!!!!!!!!!!!!!!!!
 

 
Από: Eleni!, στις 14-05-2009:
To tragudi einai telio kai genika o alkinoos ine telios! alkinoo we love u!!!!!!!!!
 

 
Από: apelpismenh ki8aristria...[!], στις 25-04-2009:
An rwthsw t symainoun t e, B, G, D, A, E, Am, F, Dm 8 m brisei o evagelos... an oxi 8 meinw m tn aporia k dn 8 kata6erw pt n bgalw t tragoudi stn ki8ara... t apo t 2 n kanw arage???... loipon... egw 8 rwthsw k an yparxei knn kalo paidaki p mporei n m apanthsei as t kanei...;););)
 

 
Από: evagelos, στις 23-04-2009:
re kamene tora 8umi8ikes na rotiseis? einai prin apo ena xrono ta sxolia......knok!!!knok!!!knok!!!is anybody there???!!!@#%$%^&*()
 

 
Από: chloe, στις 10-04-2009:
re pedia mou eksigate k mena ligo tis tablatoures??
 

 
Από: (ανώνυμο), στις 12-12-2008:
το ρεφρεν παει
  Am   Bb  G Am
 

 
Από: Strik3R, στις 14-04-2008:
BRAVO!!!!! TO TRAGOUDI EINAI APIXTO BRAVO K STA PAIDIA GIA TIS TABLATOURES
 

 
Από: greek_sorcerer, στις 11-01-2008:
o StaSis exei dikio gia tin tablatura. o alkinoos etsi pezei sto live. alla kai tou Μαρίνος Κωστή kala akougetai. Bravo! Olososti i tablatura!
 

 
Από: StaSiS, στις 23-01-2007:
   Am            F                 Dm             G
e-------------------------------------------------------------------]
B------------------------1----------------3--3-1--0-------0-1--0----]
G--------2--2-0------2----------------2-------------------0(2)------]
D-----2----------3----------3-2----0--------------------------------]
A-0-----------------------------------------------------------------]
E-----------------------------------------------------3-------------]
 

 
Από: marinaki356, στις 30-07-2006:
Aχ βρε Jussi... Finland for ever!
 

 
Από: wizofcom, στις 31-01-2006:
   Am            F                 Dm             G
e-------------------------------------------------------------------]
B------------------------1--1-0-----------3--3-1--0-------0-1--0----]
G--------2--2-0------2----------------2-----------------------------]
D-----2----------3-----------------0--------------------------------]
A-0-----------------------------------------------------------------]
E-----------------------------------------------------3-------------]
 

 
Από: chrystalleni, στις 05-07-2005:
Alkinoos 4 ever! pe8kia en o kalitteros pu tus tragudistes! en exei la8os. o pio agnos, o pio iremos! en exw logia na ton pregra4w. elpizw na min stamatisi POTE na traguda