logo

 
1993 - Κύκλος

Για την Ελλάδα

Μάλαμας Σωκράτης

 

Μουσική/Στίχοι: Μάλαμας Σωκράτης/Μάλαμας Σωκράτης

Στις: 07-05-2005
(3.3, με 27 ψήφους)
 

Αξιολογήστε την παραπάνω καταγραφή του τραγουδιού:    Ακριβής     Λανθασμένη

Βρήκατε κάποιο λάθος; Δηλώστε το παρακάτω, ή χρησιμοποιήστε την Αποστολή Διόρθωσης.

 

Η χρήση επιτρέπεται μόνο για προσωπική μελέτη και για εκπαιδευτικούς λόγους.
Η παραπάνω καταγραφή δηλώνει την προσωπική γνώμη του αποστολέα για τον τρόπο με τον οποίο μπορεί να παιχτεί το παραπάνω τραγούδι.

 

Αλλαγή τόνου: ημιτόνια

Απόκρυψη tablature

Απόκρυψη συγχορδιών

Εκτύπωση

YouTube

Facebook

 

Σύμφωνα με τα στατιστικά μας, σας προτείνουμε να συνεχίσετε με ένα από τα παρακάτω τραγούδια:
 
Βρέθηκαν και άλλες εκδόσεις αυτού του τραγουδιού (ή τραγούδια με παρόμοιους στίχους):
 
 

Σχόλια / Διορθώσεις / Αφιερώσεις:
 
Από: fotis, στις 18-07-2014:
Μπορει να μου εξηγησει καποιος/α πως διαβαζεται η εισαγωγη(solo) πως δλδ να το παιξω επειδη ειμαι αρχαριος αν ειναι ευκολο???
 

 
Από: Μαξιμος, στις 11-01-2011:
Εισαγωγή (που θα παίζεται στα κανονικά τάστα δλδ σαν να μην είχαμε βάλει το καπο τάστο):

E---7/9----7---4-5--5--7p5h7---------------------------------------------5/4-2---------- |
B------------------------------7--7/9---5--4--5-5---7p5h7------4-5-7-----5/4-2---4-5-7-- |
G----------------------------------------------------------6---------------------------- | x2
D--------------------------------------------------------------------------------------- |
A--------------------------------------------------------------------------------------- |
E--------------------------------------------------------------------------------------- |

και άλλη μια παρατήρηση.... Εκεί που παίζει C#m k Bm πάει Bm και μετά A.
Υ.Γ είναι πρώτη φορά που στέλνω ταμπλατούρες γι'αυτό οποιαδήποτε παρατήρηση και διόρθωση ευπρόσδεκτη...
 

 
Από: frenzy, στις 27-01-2010:
παιδιά μπορεί να μου προτείνει κάνεις κάποια εύκολη ταμπλατούρα του σώκρατη γιατί είμαι ακόμα αρχάριος στη κιθάρα
 

 
Από: (ανώνυμο), στις 04-07-2009:
e-9h10---------------------------------3h4--------------------------------
b----12--9-10--10-12-9h10p9-7-------------7---4-5--5-7-4h5p4-2-0--4-5-7----
G-------------------------------------------------------------------------
D----------------------------------------------------------------------------
A----------------------------------------------------------------------------
E----------------------------------------------------------------------------
 

 
Από: Noone, στις 04-07-2009:
ME to afti akougontas k xwris na eimai kanenas eidikos nomizw oti to solo stin arxi exei afth th morfh

e-9h10---------------------------------4h5--------------------------------
b----12--9-10--10-12-9h10p9-7-------------7---4-5--5-7-4h5p4-2-0--4-5-7----
G-------------------------------------------------------------------------
D----------------------------------------------------------------------------
A----------------------------------------------------------------------------
E----------------------------------------------------------------------------
 

 
Από: Κώστας Καμπάκης , στις 18-05-2005:
Η συγχορδία που αναγράφεται ως * είναι η G5 άλλα χαμηλά...
Με το καποτάστο παίζει ως G5(0-12-14-14-0-0)