logo

 
1991 - Παραμύθια

Αράχνη

Μάλαμας Σωκράτης

 

Μουσική/Στίχοι: Μάλαμας Σωκράτης/Μάλαμας Σωκράτης

Από: Χρόνης
Στις: 28-11-2007
(3.4, με 25 ψήφους)
 

Αξιολογήστε την παραπάνω καταγραφή του τραγουδιού:    Ακριβής     Λανθασμένη

Βρήκατε κάποιο λάθος; Δηλώστε το παρακάτω, ή χρησιμοποιήστε την Αποστολή Διόρθωσης.

 

Η χρήση επιτρέπεται μόνο για προσωπική μελέτη και για εκπαιδευτικούς λόγους.
Η παραπάνω καταγραφή δηλώνει την προσωπική γνώμη του αποστολέα για τον τρόπο με τον οποίο μπορεί να παιχτεί το παραπάνω τραγούδι.

 

Αλλαγή τόνου: ημιτόνια

Απόκρυψη συγχορδιών

Εκτύπωση

YouTube

Facebook

 

Σύμφωνα με τα στατιστικά μας, σας προτείνουμε να συνεχίσετε με ένα από τα παρακάτω τραγούδια:
 
Βρέθηκαν και άλλες εκδόσεις αυτού του τραγουδιού (ή τραγούδια με παρόμοιους στίχους):
 
 

Σχόλια / Διορθώσεις / Αφιερώσεις:
 
Από: sce3, στις 06-09-2009:
psiloxalase i seira sto tab pou egrapsa panw meta ta 4 pentaria se 2i k 3i xordi....meta afou varas tin panw xordi keni (''0'') einai mazi oi sugxordioules '8-10','7-8','3-1','2-0','4-5','2-4'...exoun kounithei apla oi arithmoi pio panw...an ta valete to ena katw apo ta allo stis sugxordioules pou sas eipa tha to katalavete...elpizw na egina katanoitos...
 

 
Από: sce3, στις 06-09-2009:
parathetw parakatw tin eisagwgi opws paizetai akrivws apo malama...capo tasto 2 einai kai episis tin 'araxni' tin paizei apo Em sto capo tasto 2 sto kouple...Em,C,Em,C ktl

-----------------7-----------------------8---7-----2-0------------------------------------
---0-1---1-0------5-3--0-----5--5----10--8-----3-1-----------------------------0------
---0-0---0-0----------5-----5--5---------------------------4-2--------------0-------0---
--------------------------------------------------------------5-4-----4--2--2--2----------
---------------------------------------------------------------------5--3--3---------------
-0-----3------0-----------5---------0----------0--------0-------0------------------------



--------0-----3----------------------------------------------------------------------------
---3-0----3-----3--------------------------------------------------------------------------
--------------------------------------------------------------------------------------------
--------------------------------------------------------------------------------------------
--------------------------------------------------------------------------------------------
--------------------------------------------------------------------------------------------


Capo tasto 2

-----------------7-----------------------8---7-----2-0------------------------------------
---0-1---1-0------5-3--0-----5--5----10--8-----3-1-----------------------------0------
---0-0---0-0----------5-----5--5---------------------------4-2--------------0-------0---
--------------------------------------------------------------5-4-----4--2--2--2----------
---------------------------------------------------------------------5--3--3---------------
-0-----3------0-----------5---------0----------0--------0-------0------------------------



--------0-----3----------------------------------------------------------------------------
---3-0----3-----3--------------------------------------------------------------------------
--------------------------------------------------------------------------------------------
--------------------------------------------------------------------------------------------
--------------------------------------------------------------------------------------------
--------------------------------------------------------------------------------------------
 

 
Από: julio, στις 07-10-2008:
etsi re paidia einai to tragoudi oute apo em oute apo am pou to exoun alou sto live einai apo em logo oti tragoudaei o ioannidis....
malama eisai o logos pou eimai zontanos
 

 
Από: Panos, στις 31-08-2008:
exw thn eisagwgi se tab alla den 3erw pws a thn anebasw... opoios thelei as mou steilei to e-mail tou na tou ti steilw...pankab@in.gr
 

 
Από: panos, στις 13-07-2008:
+fonw me ton niko... kapoios as bgalei thn eisagwgh se tablatoura!!!!!!!
 

 
Από: antonis, στις 25-03-2008:
sto refren otan mpainei sth D kanto D7
 

 
Από: nikos, στις 02-03-2008:
mporei kaneis na brei thn tamplatoura ths eisagoghs??????