logo

Αναφέρετε λανθασμένο, ακατάλληλο ή προσβλητικό σχόλιο
Το σχόλιο:
 
Από: krana, στις 07-07-2013:
ορίστε κι η εισαγωγή, κατά την εκτίμησή μου. ο Μάλαμας βέβαια, την παίζει λίγο πιο περίπλοκα.


Intro:
e|-------------------------------------------------|
B|-------------1----------------------1---------1--|
G|----3~--0-------0--3--0----3~----0-----0--3p0----|
D|-------------------------------------------------|
A|-------------------------------------------------|
E|--3--------3-------------3-----------------------|
0:00

e|-------------------------------------------------------|
B|----3---3h5-1h3-1-3------------------------------------|
G|----2--------------3~--0-2----2~--2-2h3-0h2-0-2-----0--|
D|--0------------------------0--0----------------3~--0---|
A|-------------------------------------------------------|
E|-------------------------------------------------------|
0:06

e|-------------------------------------------------|
B|-------------1----------------------1---------1--|
G|----3~----0-----0--3--0----3~----0-----0--3p0----|
D|-------------------------------------------------|
A|-------------------------------------------------|
E|--3----------------------3-----------------------|
0:12

e|--------------------------------------------------|
B|----3---3h5-1h3-1-3-----3--3---3h5-1h3-1-3-----3--|
G|----2-------------2----2---2-------------2----2---|
D|--0-----------------0----0------------------0-----|
A|--------------------------------------------------|
E|--------------------------------------------------|
0:18
 
 
Το όνομά σας:
Το e-mail σας:
Επαλήθευση: (Παρακαλούμε εισάγετε τους παρακάτω χαρακτήρες)
 

Αιτιολογία: