logo

 
2006 - Διάφανος

360 χλμ

Φριτζήλα Μάρθα

 

Μουσική/Στίχοι: Παπακωνσταντίνου Θανάσης/Παπακωνσταντίνου Θανάσης

Από: ZanBon
Στις: 14-12-2006
(1.8, με 31 ψήφους)
 

Αξιολογήστε την παραπάνω καταγραφή του τραγουδιού:    Ακριβής     Λανθασμένη

Βρήκατε κάποιο λάθος; Δηλώστε το παρακάτω, ή χρησιμοποιήστε την Αποστολή Διόρθωσης.

 

Η χρήση επιτρέπεται μόνο για προσωπική μελέτη και για εκπαιδευτικούς λόγους.
Η παραπάνω καταγραφή δηλώνει την προσωπική γνώμη του αποστολέα για τον τρόπο με τον οποίο μπορεί να παιχτεί το παραπάνω τραγούδι.

 

Αλλαγή τόνου: ημιτόνια

Απόκρυψη συγχορδιών

Εκτύπωση

YouTube

Facebook

 

Σύμφωνα με τα στατιστικά μας, σας προτείνουμε να συνεχίσετε με ένα από τα παρακάτω τραγούδια:
 
 

Σχόλια / Διορθώσεις / Αφιερώσεις:
 
Από: dredg, στις 16-10-2015:
  Am                         Am
--------------3—1-0-1-0h1p0--------0---------------------------------------
-------1-3s5----------------3-----1-3-1-0----------------------------------
-----2--------------------------2--------2--0-2----------------------------
---2--------------------------2-----------------3--------6----3----1-------
------------0------------------------------------------/7---/5---/2---0-3--
---------------------------------------------------------------------------
 
                           Am
---------------------------0-----------------------------------------------
---------------------------1-----------------------------------------------
---------------------------2-----------------------------------------------
---------------------------2-----------------------------------------------
--------0-2-3--2h3p2-0-----0-----------------------------------------------
--0-1-4-----------------0--------------------------------------------------
 

 
Από: Γιάννης, στις 08-02-2014:
Εντάξει , βρε παιδιά , ήρεμα , μία προσπάθεια έκανε ο άνθρωπος, δε χρειάζεται τέτοια κριτική...
 

 
Από: perdix, στις 05-08-2013:
Ο πρώτος στίχος είναι σωστός, στο δεύτερο σβήνουμε το Β. Ο τρίτος και ο τ́έταρτος θέλουν πολ́ύ διόρθωση, θα τους γράψω από την αρχή:
(Εm)Τα εκκλη(Dm)σάκια (Em)στις στρο(Dm)φές κου(Em)νάν λευ(D)κό μα(Em)ντήλι
Κι (Em)από τα (Dm)μάτια (Em)τους κυ(Dm)λά το (C)ταγγι(Dm)σμένο (Am)λά(Em)δι
Στο ρεφραίν ο δεύτερος και ο τέταρτος στίχος είναι εντάξει, οι άλλοι όμως:
(Am)Πρώτα ο Καραβόμυλος, (F)ύστερα η Στυ(Am)λίδα
Δεν (F7)ξέρω που γεν(Am)νήθηκα, θυ(F7)μίστε μου που (Am)πάω.
Αυτά. Μπράβο για την προσπάθεια...
 

 
Από: kamenos, file, στις 22-04-2009:
aa, kai sto tagkismeno ladi den exei Em alla C, to kommati episis den exei pouthena B... oti na 'nai
 

 
Από: kamenos, file, στις 22-04-2009:
re paidia, eimaste sobaroi; ekei pou les ''ta ekklisakia stis strofes kounan lefko mantili.........'' opou exeis balei Am einai Em kai opou exeis balei G einai Dm
 

 
Από: kamenos, file, στις 22-04-2009:
re paidia, eimaste sobaroi; ekei pou les ''ta ekklisakia stis strofes kounan lefko mantili.........'' opou exeis balei Am einai Em kai opou exeis balei G einai Dm
 

 
Από: burke, στις 21-04-2007:
mporei na steilei kaneis tab?