logo

 
1999 - Φύλακας Άγγελος

Η πρώτη μας φορά

Κότσιρας Γιάννης

 

Μουσική/Στίχοι: /

Στις: 21-02-2006
(3.6/5.0, με 57 ψήφους)
 

Αξιολογήστε την παραπάνω καταγραφή του τραγουδιού:    Ακριβής     Λανθασμένη

Βρήκατε κάποιο λάθος; Δηλώστε το παρακάτω, ή χρησιμοποιήστε την Αποστολή Διόρθωσης.

 

Η χρήση επιτρέπεται μόνο για προσωπική μελέτη και για εκπαιδευτικούς λόγους.
Η παραπάνω καταγραφή δηλώνει την προσωπική γνώμη του αποστολέα για τον τρόπο με τον οποίο μπορεί να παιχτεί το παραπάνω τραγούδι.

 

Αλλαγή τόνου: ημιτόνια

Απόκρυψη tablature

Απόκρυψη συγχορδιών

Εκτύπωση

YouTube

Facebook

 

Σύμφωνα με τα στατιστικά μας, σας προτείνουμε να συνεχίσετε με ένα από τα παρακάτω τραγούδια:
 
Βρέθηκαν και άλλες εκδόσεις αυτού του τραγουδιού (ή τραγούδια με παρόμοιους στίχους):
 
 

Σχόλια / Διορθώσεις / Αφιερώσεις:
 
Από: nasosm, στις 03-01-2015:
αγαπητοί, το άρπισμα:

τα Χ σε παρένθεση είναι προφανώς μόνο για όταν το μπάσο είναι στην 4η χορδή...

couple (σε κάθε στίχο επαναλαμβανόμενο 4 φορές):

----------X-------------------X------------
--------X---X------------X-------X---X-----
------X-------X--------X---X-------X-------
-(X)--------------(X)----------------------
--X----------------X-----------------------
-------------------------------------------


refrain (σε κάθε στίχο):

------------X------------------------X------------------------X------------------------X---------
----------X---X---Χ----------------X---X---Χ----------------X---X---Χ-------------X-------X---X--
--------X-------X----------------X-------X----------------X-------X-------------X---X-------X----
-(X)----------------------(X)----------------------(X)----------------------(X)------------------
--X------------------------X------------------------X------------------------X-------------------
-------------------------------------------------------------------------------------------------
 

 
Από: Στέφανος, στις 09-05-2013:
παιδιά το σωστό άρπισμα πως είναι??
 

 
Από: stefanos, στις 07-04-2012:
pisteuw pws anti gia E(0) thelei B(1)..proswpiki mou apopsi paidia..
 

 
Από: bekis, στις 16-02-2012:
re paidia...to trgoudi einai apisteyto...akoma kai twra to akouw synexeia...an mporeite grapste arpismata...einai pio erwtika apo chords...euxaristw....
 

 
Από: γιώργος, στις 09-03-2011:
ωραίος Θάνο!!! Ολόσωστος!!
 

 
Από: Θάνος Κόντης, στις 23-07-2010:
:D ευχαριστω πολυ να σαι καλα.. Ναι μονος μου το εβγαλα..! Πιστευω ετσι παιζεται αλλα εχει μεγαλα ανοιγματα και ειναι δυσκολακι αν παιζεται με μια κιθαρα
 

 
Από: despoina...!, στις 11-05-2010:
νομίζω ότι ο Θάνος έχει την πιο σωστή εκδοχή............μπράβο σου Θάνο μόνος σου το έβγαλες;ούτε ένα λαθάκι.........!!!!!!!!!:-)
 

 
Από: 13kl, στις 12-02-2010:
mpravo einai poly wraio an kai stin eisagwgi tha syfwnisw me ton petro.....kata ta alla einai oloswsto........
 

 
Από: Your Angel, στις 26-07-2009:
Paidia mprabo gia to tragoydi einia poly wraio...!!!!!
 

 
Από: Θάνος Κόντης, στις 24-02-2009:
μια πιο ακριβής προσέγγιση του ρεφραίν (αλλά και της εισαγωγής του τραγουδιού) πιστέυω είναι η εξής:

E//---------------------5-5-------------------------------------------------------//
B//-8---7-8-8--8--7-8-------8--7----5-----7--5-7--7-7---5-7--7--10--10--8-7-------//
G//---9----------9---------------5---5-5----7---------8---------8------------9----//
D//-------------------------------5---5-------------------------7------------9----//
A//-7-------------------5--------3--------5---------6-----------9------------7----//
E//------------11-----------------------------------------------------------------//


παίξτε το 2 φορές για εισαγωγή. Πιστεύω πως ο καθένας παίζει το τραγούδι με διαφορετικό τρόπο και με άλλα αρπίσματα. Το ξέρω ότι είναι λίγο σύνθετο αυτό που στέλνω αλλά αυτός είναι ο Μίτζελος!! Οποιαδήποτε παρατήρηση δεκτή
 

 
Από: (ανώνυμο), στις 01-09-2008:
Σωστος ο πετρος. αν μπορει καποιος ας βαλει τους αρπισμους που κανει κατα τη διαρκεια του κουπλε. ευχαριστω πολυ
 

 
Από: Petros, στις 18-06-2008:
(An kai exei perasei polus kairos apo tote pou grapsate to tragoudi) emena m' aresei na paizw etsi to tab:

E//-3--0--2--3--/-3-3--0--2--3--/-5--5--3--2----//
B//-------------------------------------------1-//
G//---------------------------------------------//
D//---------------------------------------------//
A//---------------------------------------------//
E//---------------------------------------------//
 
E//-2---------2--/-2-2-------2--/-2--5-5--3--2--0//
B//----4--5------/-----4--5-----/-----------------//
G//-----------------------------------------------//
D//-----------------------------------------------//
A//-----------------------------------------------//
E//-----------------------------------------------//
 

 
Από: prisonBr3akmAnia, στις 18-05-2008:
υπεροχο τραγουδι..
 

 
Από: p, στις 24-01-2007:
bravo kwsta einai poly omorfo na vleppeis anthrwpous na agwnizwntai pannta filika gia tous allous opoios katalave katalave>
 

 
Από: pampos_7, στις 04-06-2006:
egw pisteuw pws anti gia E(0) paizetai B prwto tasto
 

 
Από: Λενός Κώστας, στις 22-05-2006:
Θα το δοκιμάσω φίλε... Πάντως συνήθως αντί της τελευταίας νότας παίζω μια Εm, για να μπω κι ομαλά στο κουπλέ... Ευχαριστώ πάντως!
 

 
Από: Κλεάνθης the best, στις 22-05-2006:
αγαπητέ φίλε κώστα μπράβο πολύ ακριβής απόδοση μόνο που στην πρώτη γραμμή η τελευταία νότα νομίζω οτι αντί για e ανοιχτή (0) θέλει B στο 3ο τάστο (3). προσωπική άποψη πάντα φιλικά!!!
 

 
Από: banor, στις 24-03-2006:
gratz kosta polu kalo :)
 

 
Από: Λενός Κώστας, στις 11-03-2006:
Καταπηκτικό τραγούδι του Γ.Κότσιρα. Αν κάποιος το κατεβάσει ας μου στείλει please τα σχόλια του για την απόδοση της ταμπλατούρας... Enjoy!