logo

 
1995 - Όπως μυστικά και ήσυχα...

Ήρθε ένας μάγος

Ιωαννίδης Αλκίνοος

 

Μουσική/Στίχοι: /

Στις: 16-05-2000
(2.9/5.0, με 28 ψήφους)
 

Αξιολογήστε την παραπάνω καταγραφή του τραγουδιού:    Ακριβής     Λανθασμένη

Βρήκατε κάποιο λάθος; Δηλώστε το παρακάτω, ή χρησιμοποιήστε την Αποστολή Διόρθωσης.

 

Η χρήση επιτρέπεται μόνο για προσωπική μελέτη και για εκπαιδευτικούς λόγους.
Η παραπάνω καταγραφή δηλώνει την προσωπική γνώμη του αποστολέα για τον τρόπο με τον οποίο μπορεί να παιχτεί το παραπάνω τραγούδι.

 

Αλλαγή τόνου: ημιτόνια

Απόκρυψη tablature

Απόκρυψη συγχορδιών

Εκτύπωση

YouTube

Facebook

 

Σύμφωνα με τα στατιστικά μας, σας προτείνουμε να συνεχίσετε με ένα από τα παρακάτω τραγούδια:
 
 

Σχόλια / Διορθώσεις / Αφιερώσεις:
 
Από: KM, στις 25-04-2011:
το τραγουδι το εχει γραψει ο Νικος Ζουδιαρης.
 

 
Από: ανθή, στις 19-12-2010:
τραγουδάρα...όπως όλα τα τραγούδια του Αλκίνοου φυσικά...
 

 
Από: (ανώνυμο), στις 06-05-2010:
 Em          G  Am        Em  G              Bm      Outro: Em
e|-----------------|---------------|-----------------------| 
B|-----------------|---------------|-----------------------| 
G|---------0-2-4-4-|-2-2-0-2-4-0---|-0-0-0---0-0-2-4-2-0-| 
D|-2-2-2-2---------|-------------2-|---------------------4-| 
A|-----------------|---------------|-----------------------| 
E|-----------------|---------------|-----------------------|


auto einai to swsto
 

 
Από: JazzMan, στις 04-10-2008:
to C sto prwto kouple mpainei pio prin..apo to "Ki apto kapelo"
 

 
Από: pepe, στις 24-11-2007:
Απλά...υπέροχο!
 

 
Από: Φίλιππος, στις 16-02-2006:
solo πριν το τελικο ρεφρεν:
  Em          G  Am        Em  G              Bm      Outro: Em
e|-----------------|---------------|-----------------------| 
B|-----------------|---------------|-----------------------| 
G|---------0-2-4-4-|-2-2-2-2-4-0---|-----------0-2-4-2-0---| 
D|-2-2-2-2---------|-------------2-|-4-5-5-5-0-----------4-| 
A|-----------------|---------------|-----------------------| 
E|-----------------|---------------|-----------------------|

κλείσιμο:
|-------------------|
|-------------------|
|----------0-2-4-4--|
|--2-2-2-2----------|
|-------------------|
|-------------------|
 

 
Από: m_a_r_i_a, στις 29-01-2006:
Άψογη φωνή ο Αλκίνοος και όχι μόνο! Όσοι έχουν το cd live, "Εκτός τόπου και χρόνου", θα δουν πως το τραγούδι αυτό είναι ντουέτο μαζί με την Δήμητρα Γαλάνη...!