logo

 
1991 - Παραμύθια

Αράχνη

Μάλαμας Σωκράτης

 

Μουσική/Στίχοι: /

Στις: 03-08-2000
(3.4/5.0, με 35 ψήφους)
 

Αξιολογήστε την παραπάνω καταγραφή του τραγουδιού:    Ακριβής     Λανθασμένη

Βρήκατε κάποιο λάθος; Δηλώστε το παρακάτω, ή χρησιμοποιήστε την Αποστολή Διόρθωσης.

 

Η χρήση επιτρέπεται μόνο για προσωπική μελέτη και για εκπαιδευτικούς λόγους.
Η παραπάνω καταγραφή δηλώνει την προσωπική γνώμη του αποστολέα για τον τρόπο με τον οποίο μπορεί να παιχτεί το παραπάνω τραγούδι.

 

Αλλαγή τόνου: ημιτόνια

Απόκρυψη συγχορδιών

Εκτύπωση

YouTube

Facebook

 

Σύμφωνα με τα στατιστικά μας, σας προτείνουμε να συνεχίσετε με ένα από τα παρακάτω τραγούδια:
 
Βρέθηκαν και άλλες εκδόσεις αυτού του τραγουδιού (ή τραγούδια με παρόμοιους στίχους):
 
 

Σχόλια / Διορθώσεις / Αφιερώσεις:
 
Από: georgia, στις 12-03-2011:
ena apo ta kalutara tragoudia tou malama.........polu palio vevaia alla ti na pw..........theiko......
 

 
Από: (ανώνυμο), στις 12-08-2010:
Em             C      Em 
Πιασμένος σε παγίδα
                 C      Em 
κι έχουν περάσει χρόνια
Em                C          D
στην πόρτα σου γυρνάω κάθε πρωί
Στη σκέψη σου αρρωσταίνω
στέκω βαριανασαίνω
θυμάμαι όταν σ' είχα πρωτοδεί
 
B7             Em
Δε μένει εδώ κανείς
        Am
μόνο τα δέντρα μείναν ίδια
          D                    B7
κι άδειοι δρόμοι με σκουπίδια
               Em
Δε μένει εδώ κανείς
          Am
σκληρό το φως που ξημερώνει
        D                           Em
σα μεθυσμένο μ' ανταμώνει και με λειώνει
 

 
Από: sce3, στις 08-09-2009:
Ο Μαλαμας σε όλα τα λάιβ το παίζει από Em με capotasto 2...

γη εισαγωγή με κάπο στο 2 είναι η ακόλουθη¨..

Capo tasto 2

-----------------7------------------------8---7-----2-0------------------------------------
---0-1---1-0------5-3--0------5--5--------10--8-----3-1------------------------------0------
---0-0---0-0----------5-----5--5---------------------------4-2--------------0-------0---
-----------------------------------------------------------5-4-----4--2--2--2----------
---------------------------------------------------------------------5--3--3---------------
-0-----3------0-----------5---------0----------0--------0-------0------------------------



--------0-----3----------------------------------------------------------------------------
---3-0----3-----3--------------------------------------------------------------------------
--------------------------------------------------------------------------------------------
--------------------------------------------------------------------------------------------
--------------------------------------------------------------------------------------------
--------------------------------------------------------------------------------------------
 

 
Από: christos, στις 16-04-2009:
απο Μαλαμα η εκτελεση ειναι απο Gm και το παιζει με καποταστο..σωστος ο Οδυσσεας
 

 
Από: Γιώργος Α., στις 18-01-2009:
Σε Εm(!!) μια καλή -νομιζω- προσσέγγιση της εισαγωγής είναι η ακόλουθη:


E:----------------------------7--0------------------------------8--7---------------------------
B:---0---1------1---0--------------------------5---5-----------10--8-----7--5------0-------
G:-----0---0------0---0-----------7-5-4-5-7------5---5-------------------7--5------0-----2--
D:--2-----------2------------------------------------------------------------------------2---
A:------------3----------------------------------------------------------------------------------
E:0-----------------------0-------------0--------------------0---------0---------0--------------

  C ( άρπισμα πάνω σε Ντο πριν την έναρξη του couple)
E:  --------
B:  --------
G:  --------
D:  --------
A:  --------
E:  --------

Η D παίζεται κάπως έτσι, δηλ. παρεμβάλλοντας ένα Μι στην 1η χορδή

E:  -----------------0-----2--------------------
B:  ---------3---------------------3------------
G:  -----2-----2-------2------2-----2------2--
D:  --0-----------------------------------0-----

(ελπιζω να μην χαθεί εντελώς η στοίχιση στο σχόλιο..)
Ευχαριστώ τον pankab@in.gr για την αρχική ιδέα του πώς πήγαινε η εισαγωγη!
 

 
Από: ΟΔΥΣΣΕΑΣ, στις 22-02-2008:
ΣΤΟ ΔΙΣΚΟ ΤΟΥ ΜΑΛΑΜΑ Παραμύθια (1991) ΠΑΙΖΕΤΑΙ ΑΠΟ Gm ΔΗΛΑΔΗ 1 ΤΟΝΟ ΧΑΜΗΛΟΤΕΡΑ ΑΠΟ ΟΤΙ ΕΔΩ. ΓΙΑ ΕΥΚΟΛΙΑ ΒΑΛΤΕ CAPO ΣΤΟ 3ο ΤΑΣΤΟ

ΣΤΟ LIVE ΜΕ ΤΟΝ ΑΛΚΙΝΝΟΟ ΚΑΙ ΤΗ ΧΑΡΟΥΛΑ ΤΟ ΠΑΙΖΟΥΝ ΑΠΟ Εm ΕΠΕΙΔΗ ΤΡΑΓΟΥΔΑΕΙ Ο ΙΩΑΝΝΙΔΗΣ.
 

 
Από: mikes, στις 16-02-2008:
sumfwnw me ton chris.to tragoudi einai apo Em
 

 
Από: chris.de, στις 12-12-2007:
sorry ma men alla emenena mou akougete-Em,C,Em,C.Em,C,D kai refrain-Bm,B.Em sto kaneis,meta C kai kleini se D to solaki kalo kai pai-bccbbedcbccb ktlp den exo tab.alla einai easy kali synexia.
 

 
Από: Fivos, στις 02-11-2007:
Η εισαγωγή αξίζει πραγματικά... μήπως γίνεται να την προσθέσει κάποιος;
 

 
Από: (ανώνυμο), στις 24-08-2007:
Νομίζω τα 'χω χάσει δε σ' έχω ξεπεράσει....
 

 
Από: dirk 41, στις 03-08-2007:
το τραγουδι ειναι απιθανο...σιγουρα το καλυτερο του Μαλαμα...
 

 
Από: (ανώνυμο), στις 10-04-2007:
Αν μπορεί κάποιος ας βάλει το tab με την εισαγωγή και τα αρπίσματα
 

 
Από: παύλος, στις 30-01-2007:
παιδες,εγώ το ακούω σαν φαδιεση μινόρε..γιαυτό κουρδίζω το μπάσο μι σε φαδίεση..αν και το πιθανότερο είναι να έχει καποτάστο
 

 
Από: aplanis asteras, στις 25-11-2006:
kommatara...me syntrofeyei sth diadromh me to treno...A re swkrath... ti exeis grapsei...
Δε μένει εδω κανεις...
 

 
Από: NικΓρ, στις 12-09-2006:
Βασικά όπως το άκουσα να το τραγουδάει και το έγραψα είναι απο Σι. Δηλαδή όπως είναι αλλά με κάπο στο 2 τάστο. Είναι τέλειο τραγούδι. Έχω βγάλει το σόλο στο τέλος και θα το ανεβάσω συντόμως.
 

 
Από: ill1984, στις 02-08-2006:
Nomizo pos akougetai sostotera -2 hmitonia. H apla valte -5 hmitonia me capo sto 3 tasto
 

 
Από: Γιώργος, στις 12-09-2005:
Dimitris, μήπως έχεις να μας δώσεις και tabs για το κομάτι? Εχει κάτι πολύ ωραίες κιθαριές, που ομολογώ δε μπορώ να τις βγάλω με το αυτί...PLZ κάνε μια προσπάθεια...Α! παρεπιπτόντως...το καλύτερο κομάτι του Σωκράτη (μουσικά) είναι ο Δεκέμβρης 1903...
 

 
Από: dimitris, στις 07-04-2005:
Κατά τη γνώμη μου, το καλύτερο τραγούδι του Μάλαμα...