logo

 
1991 - Ζόρικοι Καιροί

Ακόμα προσπαθώ

Πυξ Λαξ

 

Μουσική/Στίχοι: /

Από: Χαραλαμπίδης Νικόλαος
Στις: 21-12-2005
(3.4/5.0, με 16 ψήφους)
 

Αξιολογήστε την παραπάνω καταγραφή του τραγουδιού:    Ακριβής     Λανθασμένη

Βρήκατε κάποιο λάθος; Δηλώστε το παρακάτω, ή χρησιμοποιήστε την Αποστολή Διόρθωσης.

 

Η χρήση επιτρέπεται μόνο για προσωπική μελέτη και για εκπαιδευτικούς λόγους.
Η παραπάνω καταγραφή δηλώνει την προσωπική γνώμη του αποστολέα για τον τρόπο με τον οποίο μπορεί να παιχτεί το παραπάνω τραγούδι.

 

Αλλαγή τόνου: ημιτόνια

Απόκρυψη tablature

Απόκρυψη συγχορδιών

Εκτύπωση

YouTube

Facebook

 

Σύμφωνα με τα στατιστικά μας, σας προτείνουμε να συνεχίσετε με ένα από τα παρακάτω τραγούδια:
 
Βρέθηκαν και άλλες εκδόσεις αυτού του τραγουδιού (ή τραγούδια με παρόμοιους στίχους):
 
 

Σχόλια / Διορθώσεις / Αφιερώσεις:
 
Από: peter, στις 23-08-2011:
re paidia pos diabazete i tablatoura? apo pano pros ta kato apo aristera pros ta dejia pws?
 

 
Από: themis, στις 04-09-2010:
paidia o rithmos me tis sixordies pos paei?
 

 
Από: chris, στις 17-01-2009:
Oloswstos eisai file, etkos apo to solo pou mou akougetai lathos, eidika i nto# sti sol akougetai entelws faltsa!!! Alla polla bravo gia to ypoloipo kommati!
 

 
Από: Μίμης, στις 04-07-2008:
Αν εξερέσεις το σόλο στην αρχή είναι άψογο....Άποψη μου, πολλά μπράβο λεβέντη!
 

 
Από: simos, στις 22-07-2007:
panta 8a prospa8w na eimai dipla soy akoma ki an me diwxneis .......a! paidia, mia symboylh: panta na prospa8eite gia oti 8ewreitai oti axizei, akoma ki an ponai (oti axizei ponaei kai einai dyskolo - apo to "oi palies agapes pane ston paradeiso")
 

 
Από: Αγγελης Αγγελος, στις 04-01-2006:
Α ακομα μια προστθηκη...αφοθ παιξετε το πανω συμπληρωστε με το εξης
E|----------------------------------------------------------------------------------------
A|----------------------------------------------------------------------------------------
D|-----------9-7h9-9----------------------------------------------------------------------
G|------7h9------------------------------------------------------------------9p7h9-7------
B|--7/8----------------7h8p7--10-7-8-10-10-----------------10-8--7h8p7-10-7----------7-8--
E|------------------------------------------7-8-7-8--10--7--------------------------------

E|------------------------------------------------------------------
A|------------------------------------------------------------------
D|-----------9-7h9-9------------------------------------------------
G|------7h9--------------------------------------------4------------
B|--7/8----------------7h8p7--10-7-8-10-10-----8---5-3-5--3----7-8--
E|------------------------------------------7--8-7-5-3--------------
Τις νοτες που παιζουν ταυτοχρονα παιξτε τες με προς τα κατω
κινηση της πενας με μικρη διαφορα χρονου της πανω χορδης απο την κατω (ακουστε την live εκδοση στο CD "Πυξ Λαξ ΤΕΛΟΣ" και θα ειναι πιο ευκολο )
 

 
Από: Αγγελης Αγγελος, στις 04-01-2006:
To solaki opws (peripou) to paizei o Pliatsikas sto live paei kapws etsi (kai akougetai kalytera pisteyw) Dokimaste to
E|----------------------------------------------------------------------------------------
A|----------------------------------------------------------------------------------------
D|-----------9-7h9-9----------------------------------------------------------------------
G|------7h9------------------------------------------------------------------9p7h9-7------
B|--7/8----------------7h8p7--10-7-8-10-10-----------------10-8--7h8p7-10-7----------7-8--
E|------------------------------------------7-8-7-8--10--7--------------------------------

E|------------------------------------------------------------------------------------------
A|------------------------------------------------------------------------------------------
D|-----------9-7h9-9------------------------------------------------------------------------
G|------7h9--------------------------------------------------------------------9p7h9-7------
B|--7/8----------------7h8p7--10-7-8-10-10-------------------8------7h8p7-10-7---------7-8--
E|------------------------------------------7-8/15--7-5-7-5-----10--------------------------