logo

 
1996 - Λαβύρινθος

Άσε τα ψέματα.

Μάλαμας Σωκράτης

 

Μουσική/Στίχοι: Μάλαμας Σωκράτης/Μάλαμας Σωκράτης

Στις: 07-11-2000
(3.3, με 32 ψήφους)
 

Αξιολογήστε την παραπάνω καταγραφή του τραγουδιού:    Ακριβής     Λανθασμένη

Βρήκατε κάποιο λάθος; Δηλώστε το παρακάτω, ή χρησιμοποιήστε την Αποστολή Διόρθωσης.

 

Η χρήση επιτρέπεται μόνο για προσωπική μελέτη και για εκπαιδευτικούς λόγους.
Η παραπάνω καταγραφή δηλώνει την προσωπική γνώμη του αποστολέα για τον τρόπο με τον οποίο μπορεί να παιχτεί το παραπάνω τραγούδι.

 

Αλλαγή τόνου: ημιτόνια

Απόκρυψη συγχορδιών

Εκτύπωση

YouTube

Facebook

 

Σύμφωνα με τα στατιστικά μας, σας προτείνουμε να συνεχίσετε με ένα από τα παρακάτω τραγούδια:
 
Βρέθηκαν και άλλες εκδόσεις αυτού του τραγουδιού (ή τραγούδια με παρόμοιους στίχους):
 
 

Σχόλια / Διορθώσεις / Αφιερώσεις:
 
Από: Καρατζίδης Νίκος, στις 14-02-2013:
Συμφωνώ με alex81 ότι στον 2ο και 4ο στίχο από κάθε ρεφραίν θέλει και ένα Dm για χρώμα.
 

 
Από: jim1001, στις 18-07-2012:
E||-----5-7-5-7-5-7-|--5--3-5-7---5-|--3--5--------|------3-------|
B||-----------------|---------------|--------6--5--|--5-----6--5--|
G||-----------------|---------------|--------------|--------------|
D||-----------------|---------------|--------------|--------------|
A||-----------------|---------------|--------------|--------------|
E||-----------------|---------------|--------------|--------------|
 
D                             Dm             Em             Dm
--------------|--2-----2--5--|--3--5--------|------3-------|-------------|
--3-----3--5--|------5-------|--------6--5--|--5-----6--5--|--3--6----5--|
------2-------|--------------|--------------|--------------|-------------|
--------------|--------------|--------------|--------------|-------------|
--------------|--------------|--------------|--------------|-------------|
--------------|--------------|--------------|--------------|-------------|
 
                A                          G                D          Em
---------------|--------------|-----------|--3---3-3-5-3-5-|--2---2-2-3-2-3-|-----------||
--6--6-5-3-----|--2--3--5--3--|--5--------|----------------|----------------|--5--------||
------------2--|--------------|-----------|----------------|----------------|-----------||
---------------|--------------|-----------|----------------|----------------|-----------||
---------------|--------------|-----------|----------------|----------------|-----------||
---------------|--------------|-----------|----------------|----------------|-----------||
 

 
Από: κώστασ, στις 12-05-2011:
παίδες μπορείτε να παίξετε γέμισμα στο ρεφρέν:
             A       C
             Α, τα ρούχα μου μυρίζουνε φωτιά
Α:--3-2-3-4- D                                       Em
             Ε, ε, άσε τα ψέματα και βγες απ’ τον τεκέ
 

 
Από: goofy, στις 19-07-2009:
tablatoura kaneis??? kommatara...
 

 
Από: alex81, στις 21-06-2009:
Παιδια συγνωμη αλλα στον 2ο και 4ο στιχο απο καθε ρεφραιν θελει και ενα Dm για χρωμα.
 

 
Από: (ανώνυμο), στις 09-02-2009:
σε ποιο αλμπουμ ειναι ρε παιδια??
 

 
Από: mary_kiss, στις 29-01-2009:
ase ta psemata...........pes ta r sokrati
 

 
Από: χαρουλακι!!!!!!!!!!!, στις 15-12-2007:
η συμμετοχη της χαρουλας στον λυκαβηττο το αποθεωσε το τραγουδι!!!!!!!!!!!!!!!!!!!!!!!!!!!!!!!!!!!!!!!!!!!!!!!
 

 
Από: amigos, στις 18-11-2007:
οχι κατι σημαντικό.
Σκάλα μ’ ανέβασες πριν πέσω χαμηλά

Το τραγούδι είναι απλα απαιχτο
 

 
Από: (ανώνυμο), στις 21-08-2007:
EVALA KAI TABLATOURA REIIIIIIIIIII!!!!!!! POUNTINA??? :@:@:@
 

 
Από: (ανώνυμο), στις 21-08-2007:
EVALA KAI TABLATOURA REIIIIIIIIIII!!!!!!! POUNTINA??? :@:@:@
 

 
Από: kaplanis, στις 05-08-2006:
ayta einai tragoydia.. malamas kai malamatina