logo

 
2002 - Αγρύπνια

Άδειοι τόποι

Μάλαμας Σωκράτης

 

Μουσική/Στίχοι: /

Από: Iamos
Στις: 19-06-2006
(2.7/5.0, με 15 ψήφους)
 

Αξιολογήστε την παραπάνω καταγραφή του τραγουδιού:    Ακριβής     Λανθασμένη

Βρήκατε κάποιο λάθος; Δηλώστε το παρακάτω, ή χρησιμοποιήστε την Αποστολή Διόρθωσης.

 

Η χρήση επιτρέπεται μόνο για προσωπική μελέτη και για εκπαιδευτικούς λόγους.
Η παραπάνω καταγραφή δηλώνει την προσωπική γνώμη του αποστολέα για τον τρόπο με τον οποίο μπορεί να παιχτεί το παραπάνω τραγούδι.

 

Αλλαγή τόνου: ημιτόνια

Απόκρυψη tablature

Απόκρυψη συγχορδιών

Εκτύπωση

YouTube

Facebook

 

Σύμφωνα με τα στατιστικά μας, σας προτείνουμε να συνεχίσετε με ένα από τα παρακάτω τραγούδια:
 
Βρέθηκαν και άλλες εκδόσεις αυτού του τραγουδιού (ή τραγούδια με παρόμοιους στίχους):
 
 

Σχόλια / Διορθώσεις / Αφιερώσεις:
 
Από: Του κυρίου δεηθώμεν , στις 16-05-2016:
e-|--------5---------5--|------------5---8---|
B-|---4/5------4/5------|---4/5---6----------|
G-|---------------------|--------------------|
D-|---------------------|--------------------|
A-|---------------------|--------------------|
E-|---------------------|--------------------|

@Messie Τσέκαρε λίγο αυτό μου ακούγεται πιο σωστό.
 

 
Από: (ανώνυμο), στις 08-06-2010:
Bbm            G#      F#
   μ ταρατιρα  ρι τα ριρα
 
Bbm           G#     Fm
   μ ταρατιτα    ταρατι
 

 
Από: john, στις 16-07-2009:
Bbm            D#m      Bbm
   μ ταρατιρα  ρι τα ριρα
 
Bbm           D#m     Fm
   μ ταρατιτα    ταρατι
 

 
Από: Messie, στις 30-12-2008:
κάποιες μικρές διορθώσεις για το κομμάτι:
    Am               F6                    F
e-|----------------|---------------------|--------------------------5---|
B-|---------1------|---------------------|------------------------------|
G-|-------------2--|------------4---2----|-------------2----------------|
D-|----2-----------|---3---0-------------|--------------------2/3-------|
A-|--0-------------|---------------------|-------3----------------------|
E-|----------------|---------------------|--1---------------------------|
 
    Am               F6                    F
e-|----------------|---------------------|------------------------------|
B-|---------1------|---------------------|-----------------------6------|
G-|-------------2--|------------4---2----|-------------2---------5------|
D-|----2-----------|---3---0-------------|-----------------3/7----------|
A-|--0-------------|---------------------|-------3----------------------|
E-|----------------|---------------------|--1---------------------------|

κατα τη διάρκεια του κουπλέ παίζει:
    Am               F6                    F                         Am Am/G
e-|----------------|---------------------|------------------------|--5----------|
B-|---------1------|---------------------|------------------------|------0-1----|
G-|-------------2--|------------4---2----|-------------2----------|-------------|
D-|----2-----------|---3---0-------------|--------------------2/3-|-------------|
A-|--0-------------|---------------------|-------3----------------|-------------|
E-|----------------|---------------------|--1---------------------|-----------3-|
 
    Am               F6                    F                           E
e-|----------------|---------------------|----------------------|-----------|
B-|---------1------|---------------------|----------------------|-6---------|
G-|-------------2--|------------4---2----|-------------2--------|-5---------|
D-|----2-----------|---3---0-------------|-----------------3/7--|----7-6-7--|
A-|--0-------------|---------------------|-------3--------------|-----------|
E-|----------------|---------------------|--1-------------------|-----------|


και το σολο:

e-|---0------------0---|--0--------------|----0-----------------|
B-|---1---0---1--------|-----0---1---3---|----1---0-----1----3--|
G-|---2----------------|-----------------|----2-----------------|
D-|---2----------------|--2--------------|----2-----------------|
A-|---0----------------|-----------------|----0-----------------|
E-|--------------------|-----------------|----------------------|
 
e-|--0--------------------|--------|
B-|--------1----3-----1---|---0----|
G-|-----------------------|--------|
D-|-----------------------|--------|
A-|-----------------------|--------|
E-|-----------------------|--------|(x2)
 
e-|---1---------------|---1--------------|------------------------------|
B-|---1--------0---1--|---1-------0--1---|---3---1--1--0--0-------------|
G-|---2----2----------|---2---2----------|------------------------------|
D-|---3---------------|---3--------------|-------------------2--2--1--2-|
A-|-------------------|------------------|------------------------------|
E-|-------------------|------------------|------------------------------|
 
e-|--------5---------5--|---------5---7---8--|
B-|---4/5------4/5------|---4/5--------------|
G-|---------------------|--------------------|
D-|---------------------|--------------------|
A-|---------------------|--------------------|
E-|---------------------|--------------------|’
 

 
Από: iamos, στις 19-11-2007:
Α!Και το Bb είναι Βbm.Αυτά.
 

 
Από: iamos, στις 19-11-2007:
e-|1------------|1------------|---------------------------|
B-|1------------|1------------|-3---1--1---0--0-----------|
G |2---2---0--1-|--2---0---1--|------------------1---2----|
D-|-------------|-------------|---------------------------|
A-|-------------|-------------|---------------------------|
E-|-------------|-------------|---------------------------|
Εχεις δικιο.Αυτό είναι το σωστό.
 

 
Από: Shadowking, στις 06-10-2007:
-|---1---------------|---1--------------|-----------------------------|
B-|---1---------------|---1--------------|-----------------------------|
G-|---2----2---0---1--|-------2---0---1--|---3---1--1---0--0-----------|
D-|-------------------|------------------|---------------------1---2---|
A-|-------------------|------------------|-----------------------------|
E-|-------------------|------------------|-----------------------------|

αυτό το κομμάτι του solo δεν μου ακούγεται σωστό.
 

 
Από: iamos, στις 27-06-2006:
Παραθέτω το παραπάνω τραγούδι με επιφύλαξη κ ζητώ συγγνώμη απο τον δημιοιυργό για τυχόν λάθη..Με το F6/Dm7 εννοοώ ή το ενα ή το άλλο αν και ουσιαστικά είναι ίδια, κλίνοντας περισσότερο προς την Dm7.Πάντως πιστεύω ότι αυτές είναι οι συγχορδίες και τα σόλο...