logo

 
2014 - Cobra Vol. I

Τσαλιμάκια

Χατζηφραγκέτα

 

Μουσική/Στίχοι: Χατζηφραγκέτα/Χατζηφραγκέτα

D φρυγικός
4/4
Από: VicTheGreek
Στις: 19-02-2017
(5, με 1 ψήφους)
 

Αξιολογήστε την παραπάνω καταγραφή του τραγουδιού:    Ακριβής     Λανθασμένη

Βρήκατε κάποιο λάθος; Δηλώστε το παρακάτω, ή χρησιμοποιήστε την Αποστολή Διόρθωσης.

 

Η χρήση επιτρέπεται μόνο για προσωπική μελέτη και για εκπαιδευτικούς λόγους.
Η παραπάνω καταγραφή δηλώνει την προσωπική γνώμη του αποστολέα για τον τρόπο με τον οποίο μπορεί να παιχτεί το παραπάνω τραγούδι.

 

Αλλαγή τόνου: ημιτόνια

Απόκρυψη συγχορδιών

Εκτύπωση

YouTube

Facebook

 

Σύμφωνα με τα στατιστικά μας, σας προτείνουμε να συνεχίσετε με ένα από τα παρακάτω τραγούδια:
 
 

Σχόλια / Διορθώσεις / Αφιερώσεις:
 
Από: tdiam, στις 17-12-2017:
Intro:

e|-----5--5--5--4h5--5--8--7--5--4--5h4--5--------5--5--5--4h5--5--8--7--5--4----------
B|--3------------------------------------------3-------------------------------6h5--6--

e|-----5--5--5--4h5--5--8--7--5--4--5h4--5--------------------------------------------
B|--3------------------------------------------3--5--6--7--6--5--3--5--6--5--3--5--3--



e|-----5--5--5--4h5--5--8--7--5--4--5h4--5--------5--5--5--4h5--5--5--4----------------
B|--3------------------------------------------3-------------------------6--5--6h5--6--

Σου κάνουν τσαλιμάκια, σου κάνουν χαβαλέ
Και παίζουνε το τόπι κι αυτοί σαν τον Πελέ

e|-----5--5--5--4h5--5--8--7--5--4--5h4--5--------------------------------------------
B|--3------------------------------------------3--5--6--7--6--5--3--5--6--5--3--5--3--

Και παίζουνε το τόπι Γκαρίντσα και Πελέ
Όλο τσαλιμάκια και όλο κάνουν χαβαλέ


(Intro) ...


e|-----5--5--5--4h5--5--8--7--5--4--5h4--5--------5--5--5--4h5--5--5--4----------------
B|--3------------------------------------------3-------------------------6--5--6h5--6--

Έξι εκατομμύρια κουπόνια Pizza Fan
Να φτιάξω μια τζιβάνα μέχρι τους Wu-Tang Clan

e|-----5--5--5--4h5--5--8--7--5--4--5h4--5--------------------------------------------
B|--3------------------------------------------3--5--6--7--6--5--3--5--6--5--3--5--3--

Να φτιάξω μια τζιβάνα μέχρι τους Wu-Tang Clan
Έξι εκατομμύρια κουπόνια Pizza Fan


Break:

e|--3--3--3--1-----1--------------3--3--3--1-----1--3--5--
B|--------------4-----4--4--3-----------------4-----------


e|--3--3--3--1-----1--3--5--3-----------------------------------------
B|--------------4--------------3--5--6--7--6--5--3--5--6--5--3--5--3--



e|-----5--5--5--4h5--5--8--7--5--4--5h4--5--------5--5--5--4h5--5--5--4----------------
B|--3------------------------------------------3-------------------------6--5--6h5--6--

Σχολίασαν τον Βράχο, τον είπανε μπας-κλας
Μα πάλι ο Sean Connery θα μπει στο Αλκατράζ

e|-----5--5--5--4h5--5--8--7--5--4--5h4--5--------------------------------------------
B|--3------------------------------------------3--5--6--7--6--5--3--5--6--5--3--5--3--

Μα πάλι ο Sean Connery θα μπει στο Αλκατράζ
Σχολίασαν τον Βράχο, τον είπανε μπας-κλας


(Break) ...


Σου κάνουν τσαλιμάκια...