logo

 
1997 - Ο δρόμος, ο χρόνος και ο πόνος

Ο δρόμος ο χρόνος κι ο πόνος

Ιωαννίδης Αλκίνοος

 

Μουσική/Στίχοι: Ιωαννίδης Αλκίνοος/Ιωαννίδης Αλκίνοος

Στις: 16-05-2000
(3.1, με 26 ψήφους)
 

Αξιολογήστε την παραπάνω καταγραφή του τραγουδιού:    Ακριβής     Λανθασμένη

Βρήκατε κάποιο λάθος; Δηλώστε το παρακάτω, ή χρησιμοποιήστε την Αποστολή Διόρθωσης.

 

Η χρήση επιτρέπεται μόνο για προσωπική μελέτη και για εκπαιδευτικούς λόγους.
Η παραπάνω καταγραφή δηλώνει την προσωπική γνώμη του αποστολέα για τον τρόπο με τον οποίο μπορεί να παιχτεί το παραπάνω τραγούδι.

 

Αλλαγή τόνου: ημιτόνια

Απόκρυψη tablature

Απόκρυψη συγχορδιών

Εκτύπωση

YouTube

Facebook

 

Σύμφωνα με τα στατιστικά μας, σας προτείνουμε να συνεχίσετε με ένα από τα παρακάτω τραγούδια:
 
Βρέθηκαν και άλλες εκδόσεις αυτού του τραγουδιού (ή τραγούδια με παρόμοιους στίχους):
 
 

Σχόλια / Διορθώσεις / Αφιερώσεις:
 
Από: Giorgos, στις 08-09-2012:
E||---------------|-----------||
B||---------------|-----------||
G||-----2---------|--3--------||
D||--0-----3-2-0--|-----------||
A||---------------|-----------||
E||---------------|-----------||


E||---------------|-----------||
B||---------------|-----------||
G||-----2---------|--3--------||
D||--0-----3-2-0--|--2--------||
A||---------------|-----------||
E||---------------|-----------||

pedia akousa mia ektelesi kai m fenete oti pezei afto..
 

 
Από: giorgos, στις 23-05-2010:
σαν εμενα δηλ. μαλακια εκανα το τελευταιο 2 ειναι 3
 

 
Από: giorgos, στις 23-05-2010:
   Am               F    E 
E|----------------|--------||
B|----------------|--------||
G|----------------|--------||
D|-----2----------|-2------||
A|-0-------3-2-0--|--------||
E|----------------|--------||



αυτο το σωστο και προσεχετε λιγο ποιοι στελνετε και τι
 

 
Από: fenderaki, στις 13-04-2010:
edo mono -3- na to katalavete auto....
 

 
Από: PETROS, στις 13-04-2010:
FENDERAKI, KALA SOY LEEI O ANTIKIMENIKOS...FRONIMA
 

 
Από: ANTIKIMENIKOS, στις 13-04-2010:
FENDERAKI FRONIMA...-4-
 

 
Από: fenderaki, στις 10-04-2010:
antikimenike katse kala...!!! kai den vrizoume edo... akou g4.....!!
 

 
Από: antikimenikos, στις 13-03-2010:
alkinoe krata jera...sold out se oles tis sinaulies tou.salonica G4
 

 
Από: billys, στις 15-12-2009:
ο πετροσ εχει απολυτο δικιο...ετσι ακριβως παει..
 

 
Από: Petros, στις 04-07-2008:
στο live με το Μάλαμα ο Αλκίνοος έχει καποταστο στο 2ο ταστο και νομίζω πως παίζει:
   Am               F    E 
E|----------------|--------||
B|----------------|--------||
G|----------------|--------||
D|-----2----------|-3------||
A|-0-------3-2-0--|-2------||
E|----------------|--------||
 

 
Από: chrystalla, στις 24-05-2008:
simfwnw me tn WIZOFCOM!!!! t trafoudi ine telio
 

 
Από: Christina, στις 11-02-2008:
To tragoudi einai apla teleio!Einai theos!
 

 
Από: gas_liosia, στις 23-01-2008:
Συμφωνώ με τον WIZOFCOM. Φοβερό τραγούδι!
 

 
Από: teo, στις 03-01-2008:
Ειναι τελειο
 

 
Από: καποια, στις 03-12-2007:
το τραγούδι ειναι απλα τελοι!!!
Δεν έχω τπτ άλλα να πω!!!
 

 
Από: (ανώνυμο), στις 28-05-2007:
8a8ela na ma8v t skeftotan otan t egrafe
 

 
Από: Γιάννης Μίνως, στις 01-04-2006:
Ο δρόμος ο χρόνος και ο πόνος..αν βάλεις καλά στο μυαλό τη μελωδία αυτή και τους στίχους ακούς τη φωνή του Αλκίνοου και έχεις την αίσθηση πως μιλά ο Θεός...
 

 
Από: Ντινα, στις 25-05-2005:
Αυτο για ενα κοριτσι που μου ζητησε να του αφιερωσω κατι!
"κι ειναι πολυς ο δρομος να τον μετρας
μ'ενα ρολοϊ στη θεση της καρδιας"!!!!!!!!! -Σοφη ρηση...
 

 
Από: WIZOFCOM, στις 09-04-2005:
nomizo pos einai etsi:                               
E||---------------|-----------||
B||---------------|-----------||
G||-----2---------|--3--------||
D||--0-----3-2-0--|-----------||
A||---------------|-----------||
E||---------------|-----------||