logo

 
1998 - Στίλβη

Κλεμμένη ομορφιά

Πυξ Λαξ

 

Μουσική/Στίχοι: /

Στις: 30-12-2004
(3.5/5.0, με 31 ψήφους)
 

Αξιολογήστε την παραπάνω καταγραφή του τραγουδιού:    Ακριβής     Λανθασμένη

Βρήκατε κάποιο λάθος; Δηλώστε το παρακάτω, ή χρησιμοποιήστε την Αποστολή Διόρθωσης.

 

Η χρήση επιτρέπεται μόνο για προσωπική μελέτη και για εκπαιδευτικούς λόγους.
Η παραπάνω καταγραφή δηλώνει την προσωπική γνώμη του αποστολέα για τον τρόπο με τον οποίο μπορεί να παιχτεί το παραπάνω τραγούδι.

 

Αλλαγή τόνου: ημιτόνια

Απόκρυψη συγχορδιών

Εκτύπωση

YouTube

Facebook

 

Σύμφωνα με τα στατιστικά μας, σας προτείνουμε να συνεχίσετε με ένα από τα παρακάτω τραγούδια:
 
Βρέθηκαν και άλλες εκδόσεις αυτού του τραγουδιού (ή τραγούδια με παρόμοιους στίχους):
 
 

Σχόλια / Διορθώσεις / Αφιερώσεις:
 
Από: conan, στις 05-05-2015:
E----------------------------------------------0-0-0-0------------------------------------------|x2----0-0-0-0-0-0-0-1-0-1------------------------0-0-0-0-0-0-0-1-0-1-------------------------|
B-------0-0--------0-1-0--------------0-1-3-0----------0-0-0--------0-1-0-------------3-0-------|x2------------------------0--------------0-1-3-0--------------------------------3-0----------|
G-----0-----2-0-2-------------0-2-2-2-------------------------2-0-2------------0-2-2------2-----|x2-------------------------------0-2-2-2----------------------------------0-2-2-----2--------|
D-2-2---------------------2-4----------------------------------------------2-4--------------4-2-|x2---------------------------2-4--------------------------------------2-4------------4-2-----|
 

 
Από: (ανώνυμο), στις 05-05-2015:
E------------------------------------------------------
B-------0-0--------0-1-0--------------0-1-3-0---------------
G-----0-----2-0-2-------------0-2-2-2---------
D-2-2---------------------2-4---------------------
 

 
Από: Tess, στις 20-09-2012:
thomas, τα ακόρντα είναι σωστά, το έπαιξα πάνω στο κομμάτι του δίσκου. ο Στόκας το τραγουδάει απο Em. Εγώ το λέω απο Am. Δηλαδή για γυναικεία φωνή θέλει +5 ημ.
 

 
Από: thomas, στις 05-09-2012:
Παιδια ειναι εντελως λαθος τα ακορντα.Θα το καταλαβατε αν προσπαθησατε να το παιξετε.....
 

 
Από: Nikos, στις 06-04-2011:
Μου ακούγεται σωστό! Τραγουδάρα..!
 

 
Από: σταυρος κιθαριστας, στις 04-07-2010:
se aytin tin kmatara me to bathi noima sto telos toy refren tairiazei to gi ayto kiritsi mou na pas na ga.....8eis...giati ta agoria kseroun poso tiraniomaste mexri na sas deiksoume poso sas agapame enw eseeis to ktlvnt polu ma polu arga...eyxaristw
 

 
Από: (ανώνυμο), στις 25-06-2010:
to tragoudi einai mousiki kai stixoi manos ksudous ...
 

 
Από: bv, στις 06-01-2009:
monadiko tragoudi..........k me ekfrazei apeira ayth thn periodo....
 

 
Από: (ανώνυμο), στις 23-07-2008:
Ώς νέα και άπειρη στα κιθαριστικά, θέλω να κάνω μια ερωτησούλα. Τα tabs, πως ακριβώς διαβάζονται;;
 

 
Από: Iasonas, στις 17-07-2008:
Φίλε, σορι κιόλας αλλά λάθος κάνεις. Αυτή η εισαγωγή που έγραψες είναι του 'Μέλυδρον'. Φοβερό τραγουδάκι και αυτό και το μελυδρον! :)
 

 
Από: Jordan, στις 15-11-2007:
an den kanw lathos i eisagwgi prepei na einai kapws etsi
 
A:-------0-2----2-2----2-------------
E:--0-3--------------3---3-2-3-2-0---
 

 
Από: (ανώνυμο), στις 30-09-2006:
Στον Λευτερη..
 

 
Από: Παλόμα, στις 25-07-2006:
"όταν με χτύπαγε ο βοριάς" λέει το τραγούδι.
 

 
Από: (ανώνυμο), στις 25-06-2005:
teleioiiiiiiiiiiiiiiiiiiiiiiiiiiiiiiiiiiiiiiiiiiiiiiiiiiiiiiiiiiiiiiiiiiiiiiiiiiiiiiiiiiiiiiiiiiiiiiiiiiiiiiiiiiiiiiiiiiiiiiiiiiiiiiiiiiiiiiiiiiiiiiiiiiiiiiiiiiiiiiiiiiiiiiiiiiiiiiiiiiiiiiiiiiiiiiiiiiiiiiiiiiiiiiiiiiiiiiiiiiiiiiiiiiiiiiiiiiiiiiiiiiiiiiiiiiiiiiiiiiiiiiiiiiiiiiiiiiiiiiiiiiiiiiiiiiiiiiiiiiiiiiiiiiiiiiiiiiiiiiiiiiiiiiiiiiiiiiiiiiiiiiiiiiiiiiiiiiiiiiiiiiiiiiiiiiiiiiiiiiiiiiiiiiiiiiiiiiiiiiiiiiiiiiiiiiiiiiiiiiiiiiiiiiiiiiii eimai fanatikh sas