logo

 
1991 - Χορεύω

Για μένα τραγουδώ

Παπακωνσταντίνου Βασίλης

 

Μουσική/Στίχοι: De Burgh Chris/Λέφας Γιώργος

Από: Μάριος
Στις: 28-09-2006
(2.7, με 37 ψήφους)
 

Αξιολογήστε την παραπάνω καταγραφή του τραγουδιού:    Ακριβής     Λανθασμένη

Βρήκατε κάποιο λάθος; Δηλώστε το παρακάτω, ή χρησιμοποιήστε την Αποστολή Διόρθωσης.

 

Η χρήση επιτρέπεται μόνο για προσωπική μελέτη και για εκπαιδευτικούς λόγους.
Η παραπάνω καταγραφή δηλώνει την προσωπική γνώμη του αποστολέα για τον τρόπο με τον οποίο μπορεί να παιχτεί το παραπάνω τραγούδι.

 

Αλλαγή τόνου: ημιτόνια

Απόκρυψη συγχορδιών

Εκτύπωση

YouTube

Facebook

 

Σύμφωνα με τα στατιστικά μας, σας προτείνουμε να συνεχίσετε με ένα από τα παρακάτω τραγούδια:
 
Βρέθηκαν και άλλες εκδόσεις αυτού του τραγουδιού (ή τραγούδια με παρόμοιους στίχους):
 
 

Σχόλια / Διορθώσεις / Αφιερώσεις:
 
Από: Νίκος Μπαράκος, στις 06-02-2013:
πολύ καλή δουλειά φίλε μου άλλα δεν λέει η ώρα πήγε 3 λέει η ώρα είναι 3,αλλά μπράβο για την προσπάθεια σου.
 

 
Από: (ανώνυμο), στις 11-08-2011:
Εισαγωγή:

  F#m   E      D     D  E  F#m    E     D     D  E  F#m    E      D    D E
e|-5--5-4--------2---2--4-|-5--5-4--------2---2--4-|-5--5-4--------2---2--4-|
B|-7------5-----2----2--5-|-7------5-----2----2--5-|-7------5-----2----2--5-|
G|-6--------6--2-----2--4-|-6--------6--2-----2--4-|-6--------6--2-----2--4-|
D|------------------------|------------------------|------------------------|
A|------------------------|------------------------|------------------------|
E|------------------------|------------------------|------------------------|

e|-------------------------------|
B|-----------------2-3-----------|
G|-----------1-2-4-----4-1-------|
D|-------2-4---------------2-2/4~|
A|-2-4-5-------------------------|
E|-------------------------------|
  F#m   E                                                 C#m          G#sus4
e|-5--5-4--------9----------------------------------------------4---------------|
B|-7------5--------10------------------------------------------5-5----------2---|
G|-6--------6---------11--------------------------------------6---6--------1----|
D|-----------------------12-11-----------11------------------6-----6------1-----|
A|------------------------------12-9--------12-9------------4--------4----------|
E|------------------------------------10---------10-9--5-2~-------------4-------|
 
Sorry για το λαθάκι στο πρωτο..
 

 
Από: tom243, στις 11-08-2011:
Εισαγωγή:

  F#m   E      D     D  E  F#m    E     D     D  E  F#m    E      D    D E
e|-5--5-4--------2---2--4-|-5--5-4--------2---2--4-|-5--5-4--------2---2--4-|
B|-7------5-----2----2--5-|-7------5-----2----2--5-|-7------5-----2----2--5-|
G|-6--------6--2-----2--4-|-6--------6--2-----2--4-|-6--------6--2-----2--4-|
D|------------------------|------------------------|------------------------|
A|------------------------|------------------------|------------------------|
E|------------------------|------------------------|------------------------|

e|-------------------------------|
B|-----------------2-3-----------|
G|-----------1-2-4-----4-1-------|
D|-------2-4---------------2-2/4~|
A|-2-4-5-------------------------|
E|-------------------------------|
  F#m   E                                                 C#m          G#sus4
e|-5--5-4--------9----------------------------------------------4---------------|
B|-7------5--------10------------------------------------------5-5----------2---|
G|-6--------6---------11--------------------------------------6---6--------1----|
D|-----------------------12-10-----------11------------------6-----6------1-----|
A|------------------------------12-9--------12-9------------4--------4----------|
E|------------------------------------10---------10-9--5-2~-------------4-------|
 

 
Από: adegia, στις 29-03-2011:
to tragudi apo papakonstantinou exei makran kaliterous stixous ,kai parepiptontos eimaienas apo aytus pou den akoune poia vasili logo tu oti exei rixei arketa thn poiothta tou..episeis to ξωπισο σου exei dikio o filos pexte to apla me F#- / D , akougete kalitera oso gia to sfyrixtres pou vrizoun frena pou trizoun to exei postarei oloswsta apo thn arxh o filos thelei C#7...TELOS gia to filo pou mas parapempei sto crusader gia ta accorda...einai kai lathos polla apo ta chords alla kai sa klimaka akougete poly poio orea sto post edo! kali douleia synexise etsi :)
 

 
Από: ???, στις 16-05-2010:
http://bettylou.zzruss.com/crusader.htm
edw tha vreitai oloswstes tis suxordies
........parakalw
 

 
Από: κατερινα, στις 24-10-2009:
φοβερο κομματι!!!!!!!!!!!!!!!!!!!!!!!!!!!!!
 

 
Από: core_one, στις 15-02-2009:
tromero tragoudi!alla akouste kai to au8entiko apo chris de burgh -crusader- legetai kata tin gnwmi mou einai poly kalytero!!
 

 
Από: Bassistas, στις 10-12-2008:
    E                    F                   F#m     E   D
Σφυρίχτρες που βρίζουν φρένα που τρίζουν σκορπίζουν  πανικό
 

 
Από: Καββαδιόπληκτη, στις 14-09-2008:
το τραγούδι λέγεται crusader.. αν όλα πήγαν καλά , αν πατήσεις πάνω στο Καββαδιόπληκτη θα το δεις...
 

 
Από: goofy, στις 08-09-2008:
3εχασα να μιλήσω για το τραγουδι και να πω οτι ειναι φανταστικο... για μενα, απο τα καλυτερα του βασίλη... μαζι με τον φανταρο(λοιζος), τον μπαγασα(ασιμος) και τον τριτο παγκόσμιο (παλι λοιζος νομιζω)..
 

 
Από: goofy, στις 08-09-2008:
ποτε δεν ιναι αργα για βασίλη joker... welcome to the club.. ξέρει κανείς πως λέγεται το κομμάτι στην πρώτη έκδοση του de Burgh???
 

 
Από: Καββαδιόπληκτη, στις 22-08-2008:
Kotsiosmusic κι εγώ σήμερα το εντόπισα...
Στίχοι Γιώργος Λέφας...
Ας το διορθώσει κάποιος υπεύθυνος...
 

 
Από: joker, στις 22-05-2008:
telika sta 35 anakalica oti moy aresei poly o basilis
 

 
Από: ...marina..., στις 23-01-2008:
t trafudi en telio me polli noima!k s auti tn periptwsi m teriazei apolita!sinexise vasili!
 

 
Από: kotsiosmusic, στις 20-08-2007:
οντως η μουσικη ειναι του chris de burgh αλλα ο chris δεν θα εγραφε ποτε ετσι στιχους.
 

 
Από: (ανώνυμο), στις 21-04-2007:
ti na sou pw re mastora m aresei poy den soy arese toy allou
 

 
Από: μαρια, στις 15-11-2006:
στο 'ξοπισω' δεν ταιριαζει η Ε.Η D μια χαρα ειναι.κατα τα αλλα πολυ καλη δουλεια