logo

 
2012

Ψάξε με

Οικονομόπουλος Νίκος

 

Μουσική/Στίχοι: /

Από: DenEimaiKala
Στις: 18-03-2012
(2.1/5.0, με 14 ψήφους)
 

Αξιολογήστε την παραπάνω καταγραφή του τραγουδιού:    Ακριβής     Λανθασμένη

Βρήκατε κάποιο λάθος; Δηλώστε το παρακάτω, ή χρησιμοποιήστε την Αποστολή Διόρθωσης.

 

Η χρήση επιτρέπεται μόνο για προσωπική μελέτη και για εκπαιδευτικούς λόγους.
Η παραπάνω καταγραφή δηλώνει την προσωπική γνώμη του αποστολέα για τον τρόπο με τον οποίο μπορεί να παιχτεί το παραπάνω τραγούδι.

 

Αλλαγή τόνου: ημιτόνια

Απόκρυψη συγχορδιών

Εκτύπωση

YouTube

Facebook

 

Σύμφωνα με τα στατιστικά μας, σας προτείνουμε να συνεχίσετε με ένα από τα παρακάτω τραγούδια:
 
Βρέθηκαν και άλλες εκδόσεις αυτού του τραγουδιού (ή τραγούδια με παρόμοιους στίχους):
 
 

Σχόλια / Διορθώσεις / Αφιερώσεις:
 
Από: giorgakifan, στις 15-12-2012:
Εγώ το παίζω σε καπο 2 κάπως έτσι:
 Am            G                F        G   
Μη ψάχνεις να με βρεις στο ψέμα και στην απουσία
Μη ψάχνεις να με βρεις σε μια αγκαλιά χωρίς ουσία
F        G            Am
Μη, μη ψάχνεις να με βρεις


C               G                    F
Ψάξε με στον καθρέφτη στα δικά σου τα μάτια
          Dm                 Am
Μες στης νύχτας τα κρυφά μονοπάτια
      F                        G
Στον καθρέφτη στα υγρά σου τα μάτια
 

Ψάξε με στον καθρέφτη στα δικά σου τα μάτια
 Μες στης νύχτας τα κρυφά μονοπάτια
  F                G         Am     G
Ψάξε με μες στης νύχτας τη σιωπή
 

 
Από: i love music, στις 15-05-2012:
o rythmos pws paei ?
 

 
Από: Αμπατζόγλου Γιάννης, στις 01-05-2012:
Έχει δίκιο ο καταχας. Οι δικές του συγχορδίες είναι πιο σωστές.
Και για να γουστάρουμε περισσότερο προσπάθησα να βγάλω τα σολάκια, αν και είναι δύσκολο να τα αποδώσω σε ταβλατούρα όταν έχουν σηκώματα (bends & releases). Πιστεύω ότι θα βρείτε την άκρη με λίγη προσπάθεια. Καλό παίξιμο!

solo1
e----|------------------|---------------------|----------------------
B----|------------------|---------------------|----------------------
G-7~-|-6-7-9--9-9-7-6-7-|-6-7-9--9-9b11r9-7-7-|-6-7-9--9-9-9-7-9b11r9
D----|------------------|---------------------|----------------------
A----|------------------|---------------------|----------------------
E----|------------------|---------------------|----------------------

e----|------------------|---------------------|---------------------
B----|------------------|---------------------|---------------------
G-7~-|-6-7-9--9-9-7-6-7-|-6-7-9--9-9b11r9-7-7-|-6-7-9--9-7-7-6h7p6--
D----|------------------|---------------------|--------------------9
A----|------------------|---------------------|---------------------
E----|------------------|---------------------|---------------------


solo2
e-------------------|---------------------|------------------|---------
B-------------------|---------------------|------------------|---------
G-9b11r9-9-7-9-7-6--|-9b11r9-9-7-9b11r9-7-|-9b11r9-9-7-9-7-6-|-9b11-7--
D-----------------9-|---------------------|-----------------9|--------9
A-------------------|---------------------|------------------|---------
E-------------------|---------------------|------------------|---------

e-----------------------|--------------------|-----------------------|-----------|
B-----------------------|--------------------|-----------------------|-----------|
G-9b11r9-9-7-9b11r9-7-7-|-9b11r9-9-7-9b11r9-7|-9b11r9-9-7-9b11r9-7-7-|-9b11-9-7--|
D--------------------9--|--------------------|--------------------9--|----------9|
A-----------------------|--------------------|-----------------------|-----------|
E-----------------------|--------------------|-----------------------|-----------|


outro
e------------------------
B------------------------
G-9b11r9-9-7-9b11r9-7----
D---------------------9--
A------------------------
E------------------------
 

 
Από: καταχας, στις 13-04-2012:
Bm                 F#m           G            A
Μη ψάχνεις να με βρεις στο ψέμα και στην απουσία
Bm                 F#m             G          A
Μη ψάχνεις να με βρεις σε μια αγκαλιά χωρίς ουσία
G        A              Bm     F#m
Μη, μη ψάχνεις να με βρεις


D                A                    G
Ψάξε με στον καθρέφτη στα δικά σου τα μάτια
          A                   G
Μες στης νύχτας τα κρυφά μονοπάτια
         Em                    A        (F#m)
Στον καθρέφτη στα υγρά σου τα μάτια
 
D                A                    G
Ψάξε με στον καθρέφτη στα δικά σου τα μάτια
          A                   G
Μες στης νύχτας τα κρυφά μονοπάτια
Em                 G      A   Bm
Ψάξε με μες στης νύχτας τη σιωπή

Ετσι ειναι καλυτερα :)
 

 
Από: nick, στις 09-04-2012:
milame ta accorda einai......eleos....
 

 
Από: (ανώνυμο), στις 09-04-2012:
πιστευω οτι το ρεφρεν ειναι λαθος