logo

 
2000 - Βραχνός Προφήτης

Παλιά πληγή

Παπακωνσταντίνου Θανάσης

 

Μουσική/Στίχοι: Παπακωνσταντίνου Θανάσης/Παπακωνσταντίνου Θανάσης

Από: parpen
Στις: 17-04-2005
(2.4, με 27 ψήφους)
 

Αξιολογήστε την παραπάνω καταγραφή του τραγουδιού:    Ακριβής     Λανθασμένη

Βρήκατε κάποιο λάθος; Δηλώστε το παρακάτω, ή χρησιμοποιήστε την Αποστολή Διόρθωσης.

 

Η χρήση επιτρέπεται μόνο για προσωπική μελέτη και για εκπαιδευτικούς λόγους.
Η παραπάνω καταγραφή δηλώνει την προσωπική γνώμη του αποστολέα για τον τρόπο με τον οποίο μπορεί να παιχτεί το παραπάνω τραγούδι.

 

Αλλαγή τόνου: ημιτόνια

Απόκρυψη συγχορδιών

Εκτύπωση

YouTube

Facebook

 

Σύμφωνα με τα στατιστικά μας, σας προτείνουμε να συνεχίσετε με ένα από τα παρακάτω τραγούδια:
 
Βρέθηκαν και άλλες εκδόσεις αυτού του τραγουδιού (ή τραγούδια με παρόμοιους στίχους):
 
 

Σχόλια / Διορθώσεις / Αφιερώσεις:
 
Από: papxia, στις 08-08-2009:
palia mou pligi aiwnia pligi s agapw th milia na mou perneis th lhsmonia na mh ferneis

palia pligi mikri pligi

megalos ponos

matwnw monos
 

 
Από: TaNgaS, στις 29-03-2007:
Αυτή είναι η εκτέλεση από -Τα Ζωντανά-

Intro
Dm7

F, Gm, A# Dm
F, Gm, A#, C, Dm
 
F             Gm                 c   a# a g  f
Βαθιά πληγή, παλιά πληγή, μονάκριβη δική μου
F                        Gm      C           Dm
την ξεριζώνω απ' την καρδιά, φυτρώνει στην αυλή μου
την ξεριζώνω απ' την καρδιά, φυτρώνει στην αυλή μου
βαθιά πληγή, παλιά πληγή, μονάκριβη δική μου
 
Intro
 
Ανθίζει καταχείμωνο που οι φωνές κοπάζουν
Έχει τη φυλλωσιά πυκνή και νύχια που χαράζουν
Έχει τη φυλλωσιά πυκνή και νύχια που χαράζουν
Ανθίζει καταχείμωνο που οι φωνές κοπάζουν
                                                             C
e|-----------------------------------------------------------0--|
B|-----------------------------------------------------------1--|
G|-------------------------2-0/2-0---------------------------0--|  
D|---------3--------3------------------3--------3------------2--|
A|-0-1-0----0-1-0----0-1-0--------0-1-0----0-1-0----0-1-0----3--|
E|-----------------------------------------------------------3--|
 
C     Dm   C   Dm  C    Dm    C  Dm
Αγαπημένα πρόσωπα, αγαπημένα μάτια
F        Gm     a g f e  F           Gm   a g f e Dm
έρχονται σαν τα κύματααα και αφήνουν καταακάαααθια
 
Μαραίνεται απ' το γέλιο μου, πίνει απ' τα δάκρυα μου
Έρχεται στις παρέες μου και κλέβει τη μιλιά μου
Βαθιά πληγή, παλιά πληγή, πες μου τι να κοιτάξω
Να μπω σε κόσμο σκοτεινό, ή πάλι να αγκαλιάσω
 
Αγαπημένα πρόσωπα...

τα μικρά γράμματα αντιστοιχούν στις νότες στις Α και Ε

σε μια πιο "light" ενορχηστρωτικά ζωντανή εκτέλεση με περισσότερη έμφαση στην κιθάρα ο κ. Μυστακίδης στη εισαγωγή παίζει τα παρακάτω...

    F           Gm           Bbsus2?                Dm
e|------------------------------------------------------------|
B|-----------------------------------1-3-1-1------------------|
G|-----0------------2----------------3------3-3-2-2--------2--|
D|------3--3---------5----5------3-------------------0---0--0-|
A|---3----3-3----5------5--5--1------------------------0------|
E|--1----1------3------3--------------------------------------|


   F            Gm                 Bb     C     Dm
e|------------------------------------------------------------|
B|------------------------------------------------------------|
G|-----0------------2--------------3-0-0-3-0-0-------------|
D|------3--3---------5----5---------------------2-0-0-2-0--|
A|---3----3-3----5------5--5--------------------------------|
E|--1----1------3------3--------------------------------------|


     Dm7
  e|--8--|
  B|--6--|
  G|--7--|
  D|--7--|
  A|- x--|
  E|--x--|

συγχωρέστε με για την κατάσταση των tabs ως προς των οποίων την -κατασκευή- δηλώνω πλήρη άγνοια. αν κάποιος έχει κάποιο σχετικό πρόγραμμα ,και την ευγενή καλοσύνη, ας μου στείλει ένα mail να με το επισημάνει!
 

 
Από: giorgakiss, στις 05-03-2006:
to afierono ston filo mou ton giorgo me polu agaph
 

 
Από: dimitris, στις 25-09-2005:
Όπως και να έχει ειναι ενα εκπληκτικο τραγούδι και το αγαπημένο σου. Στην Β.
Αφιερωμένο για να θυμάσαι...
1-11-2002/11-7-2005
Δημήτρης
 

 
Από: parpen, στις 19-05-2005:
Σωστές όλες οι διορθώσεις..Όμως και έτσι να το παίξω δεν ακούγεται λάθος. Μάλλον εγώ άκουσα την ερμηνεία και όχι από κάτω τη μουσική..
 

 
Από: Στράτος, στις 30-04-2005:
Η εισαγωγή αρχίζει με F#m
ακολουθεί σωστά το A,Bm,D,F#m 
αλλά το τελευταίο  A,Bm,D,E,F#m νομίζω

Στο couple:
A               Bm                A   (E)
Βαθιά πληγή, παλιά πληγή, μονάκριβη δική μου
 A                Bm             E            F#m
την ξεριζώνω απ' την καρδιά, φυτρώνει στην αυλή μου                   

Στο ρεφρέν σωστά το πρώτο μισό αλλά το άλλο πάει κάπως σαν το couple δηλ.:
A         Bm     A  E A E  A         Bm  A E A E  F#m
έρχονται σαν τα κύματαααα κι αφήνουν κατακάαααααθια

Τα ακκόρδα στο κύματαααα και στο κατακάαααθια δεν είναι ακριβώς σωστά!