logo

 
2006 - Χειμωνανθός

Εκατόφυλλα

Χαρούλης Γιάννης

 

Μουσική/Στίχοι: /

Από: ZanBon
Στις: 18-01-2007
(2.3/5.0, με 15 ψήφους)
 

Αξιολογήστε την παραπάνω καταγραφή του τραγουδιού:    Ακριβής     Λανθασμένη

Βρήκατε κάποιο λάθος; Δηλώστε το παρακάτω, ή χρησιμοποιήστε την Αποστολή Διόρθωσης.

 

Η χρήση επιτρέπεται μόνο για προσωπική μελέτη και για εκπαιδευτικούς λόγους.
Η παραπάνω καταγραφή δηλώνει την προσωπική γνώμη του αποστολέα για τον τρόπο με τον οποίο μπορεί να παιχτεί το παραπάνω τραγούδι.

 

Αλλαγή τόνου: ημιτόνια

Απόκρυψη συγχορδιών

Εκτύπωση

YouTube

Facebook

 

Σύμφωνα με τα στατιστικά μας, σας προτείνουμε να συνεχίσετε με ένα από τα παρακάτω τραγούδια:
 
Βρέθηκαν και άλλες εκδόσεις αυτού του τραγουδιού (ή τραγούδια με παρόμοιους στίχους):
 
 

Σχόλια / Διορθώσεις / Αφιερώσεις:
 
Από: Αλέξης, στις 08-11-2014:
Βασικά εγω στην εισαγωγή ακούω αυτο :
e:------------------------------|--------------------------------------------------|
b:------------------------------|--------------------------------------------------|
g:-------7---5---7--3--5--------|-----------7----5----7--3-----3--5----5-----------|
d:-----7---7---7----3--5----x2--|---------7---7----7-----3---3----5--5---5-----x2--|
a:---5--------------1--3--------|-----5------------------1--------3----------------|
e:------------------------------|--------------------------------------------------|

2 φορές το 1ο ριφφάκι κ μετα συνεχίζει το 2ο κ στο verse...
 

 
Από: nikos, στις 23-07-2013:
eisagogi:
e:------------------------------------------
b:------3-1 kai 3 --6--5-----3-1 kai 3--------
g:----2--------------------2-----------3---5--
d:--0--------------------0--------------------
a:------------------------------------------
e:------------------------------------------

ekei pou leo 1 kai 3 enoo me ena xtipima xordis tha paixnei ekei!!!!!autin einai mia diki mou mikri prospathia san autodidaktos dexomai otidipote sxolia exete na kanete!!!!elpizo na boithisa!!!!!
 

 
Από: geo83, στις 12-04-2011:
φιλε χριστο εσχι καποια λαθη.αντι για f θελει Α στη δευτερη στροφη δεν θελει Βb αλλα Gm k τελος αντι για Αm- Α...δες το ετσι ειναι σιγουρα σωστο :)
 

 
Από: xristos, στις 27-02-2011:
paidia emena to refren mou fainetai oti paizei 
Bb           C              F           Dm
 se osous polemous ki an me pas tha se nikisw
Bb       C          Am            Dm
 agapise me an toso thes na ksepsixisw..

(sorry gia ta greeklish)
 

 
Από: andy, στις 17-03-2008:
swstos o tom
 

 
Από: τομ , στις 15-03-2008:
ρε παιδια το αψεντι ειναι ενα τσεχικο ποτο ή κανω λαθος?
 

 
Από: Sesimasmenos gia dimiourgia kata sirroi, στις 27-02-2008:
Προφανως το αψεντι ειναι καποιο δηλητηριο.Μια κοπελα,η abovesky εχει ανεβασει και αυτο και το χειμωνανθο ντημμενο ομορφα με φωτογραφιες στο youtube.
 

 
Από: Fisherrman, στις 09-05-2007:
"με τ’ αφέντι ανακατώνεις"

Το σωστό είναι:
με τ' ΑΨΕΝΤΙ ανακατώνεις

Εκπληκτικό Τραγούδι
 

 
Από: Turin Turambar, στις 26-04-2007:
Μαγικό τραγούδι... Γιατί μ' έχεις βάλει στο σημάδι αγαπούλα μου?
 

 
Από: (ανώνυμο), στις 31-03-2007:
to palikari exei poly ma poly mellon