logo

 
1991 - Παραμύθια

Πάμε να φύγουμε

Μάλαμας Σωκράτης

 

Μουσική/Στίχοι: Μάλαμας Σωκράτης/Μάλαμας Σωκράτης

Από: ibanez102
Στις: 13-02-2002
(3.5, με 28 ψήφους)
 

Αξιολογήστε την παραπάνω καταγραφή του τραγουδιού:    Ακριβής     Λανθασμένη

Βρήκατε κάποιο λάθος; Δηλώστε το παρακάτω, ή χρησιμοποιήστε την Αποστολή Διόρθωσης.

 

Η χρήση επιτρέπεται μόνο για προσωπική μελέτη και για εκπαιδευτικούς λόγους.
Η παραπάνω καταγραφή δηλώνει την προσωπική γνώμη του αποστολέα για τον τρόπο με τον οποίο μπορεί να παιχτεί το παραπάνω τραγούδι.

 

Αλλαγή τόνου: ημιτόνια

Απόκρυψη συγχορδιών

Εκτύπωση

YouTube

Facebook

 

Σύμφωνα με τα στατιστικά μας, σας προτείνουμε να συνεχίσετε με ένα από τα παρακάτω τραγούδια:
 
 

Σχόλια / Διορθώσεις / Αφιερώσεις:
 
Από: dredg, στις 08-04-2015:
sorry παιδια, στην 1η γραμμη όλα τα 5 είναι 6,το υπόλοιπο νομιζω οτι ειναι οκ.
 

 
Από: dredg, στις 06-04-2015:
e----0-----0----0---------0-----0-----0---------
b-------5----5----5-5--------5-----5----5-5-----
g---7----7----7----7-----7----7-----7----7------
d-0---------------------8-----------------------
a-----------------------------------------------

e----7-----7----7---------6-----6-----6---------
b-------6----6----6-6--------5-----5----5-5------
g---7----7----7----7-----6----6-----6----6-----
d-5---------------------5-----------------------
a-----------------------------------------------

e----5-----------5-----------5--------1---0----1-----
b-------5-5--------5-5--------5-5-------3---3----3-3-
g---6----6-----6----6-----6----6-----2---2---2----2--
d-7--------------------------------0-----------------
a------------8----------7----------------------------

εισαγωγή απλό Dm(για Εm βαλτε capo 2 και μεταφερετε θεσεις)
 

 
Από: (ανώνυμο), στις 08-03-2014:
την εισαγωγη κανεις???
 

 
Από: kostaskabala, στις 25-01-2011:
emena pantos mou akougontai kai ta duo sosta opio sas boleuei pejte B h B7 KAI TA DUO EINAI SOSTA
 

 
Από: Θανάσης Καρανίκας, στις 20-06-2010:
Νομίζω οτι η Β7 ειναι απλα Β.
Κατα τα αλλα ωραιοτατο!
Ευχαριστουμε :)
 

 
Από: (ανώνυμο), στις 22-05-2009:
αδέρφια μήπως η Β7 είναι λάθος;
 

 
Από: Πριγκηπέσα, στις 08-12-2007:
Κι εγώ έτσι αισθάνομαι γμτ!!! 
Αυτός ο Σωκράτης με εκφράζει τόσο πολύ τελικά...
 

 
Από: Turin Turambar, στις 14-06-2007:
Δε θα μπορούσα να εκφράσω καλύτερα τα συναισθήματά μου για την πόλη που ζω, απ' όσο τα εκφράζει αυτο το τραγούδι.