logo

 
 

Κάλαντα Χριστουγέννων

Παραδοσιακό

 

Μουσική/Στίχοι: /

Στις: 04-01-2002
(2.2/5.0, με 184 ψήφους)
 

Αξιολογήστε την παραπάνω καταγραφή του τραγουδιού:    Ακριβής     Λανθασμένη

Βρήκατε κάποιο λάθος; Δηλώστε το παρακάτω, ή χρησιμοποιήστε την Αποστολή Διόρθωσης.

 

Η χρήση επιτρέπεται μόνο για προσωπική μελέτη και για εκπαιδευτικούς λόγους.
Η παραπάνω καταγραφή δηλώνει την προσωπική γνώμη του αποστολέα για τον τρόπο με τον οποίο μπορεί να παιχτεί το παραπάνω τραγούδι.

 

Αλλαγή τόνου: ημιτόνια

Απόκρυψη συγχορδιών

Εκτύπωση

YouTube

Facebook

 

Σύμφωνα με τα στατιστικά μας, σας προτείνουμε να συνεχίσετε με ένα από τα παρακάτω τραγούδια:
 
Βρέθηκαν και άλλες εκδόσεις αυτού του τραγουδιού (ή τραγούδια με παρόμοιους στίχους):
 
 

Σχόλια / Διορθώσεις / Αφιερώσεις:
 
Από: Μάκης, στις 30-12-2016:
Η κλίμακα του κομματιού είναι η Ρε Ματζόρε; Ή δεν πατάει πάνω σε κάποια κλίμακα;
 

 
Από: (ανώνυμο), στις 20-11-2015:
Ωραίο το τραγούδι,πετυχυμένες οι συγχορδίες.
 

 
Από: περικλης, στις 22-12-2013:
η tablatoura είναι σωστή ευχαριστώ πολύ παιδιά
 

 
Από: ξερολας, στις 29-09-2013:
den einai etsi ta tabs axrhstoi
 

 
Από: Κώστας, στις 25-12-2011:
παίδες ξέρετε τον ρυθμό στα ακόρντα?
 

 
Από: Υο , στις 24-12-2010:
ρε το groove πως παει?
 

 
Από: (ανώνυμο), στις 23-12-2010:
kai meta paei...
E------------------------------------
B----------------------------------------
G-----0-2-2-0-----0-------------0-2-0-2-0------------
D-2-3---------3-2---3-2-0-0-2-3------------------
A----------------------------------------------
E-------------------------------------------------
 

 
Από: (ανώνυμο), στις 22-12-2010:
sorry ennousa:
E------------------------------------------------
B------0-1-0----------------------------------------
G--0-2------ 2 0---- 0-------------0-2-0-2-0--------
D--------------- 3 2---3-2-0-0-2-3------------------
A-------------------------------------------------
E-------------------------------------------------
 

 
Από: (ανώνυμο), στις 22-12-2010:
to tab eine afto:

E------0-1-0----------------------------------------
B--0-2------ 2 0---- 0-------------0-2-0-2-0--------
G--------------- 3 2---3-2-0-0-2-3------------------
D-------------------------------------------------
A-------------------------------------------------
E--------------------------------------------------
 

 
Από: Nenouvar, στις 20-12-2009:
 
G     C       
Καλήν ημέραν άρχοντες
 

 
Από: λευτερης, στις 19-12-2009:
ετσι ειναι τα tabs για οσουσ ενδιαφερονται...
 

 
Από: λευτερης, στις 19-12-2009:
E---------------------------------------------------------------
B------0--1--0--------------------------------------------------
G-0-2------------2-0---------2--0-------------------------------
D----------------------3--2--------3--2--0-2-3---0--2--0--2--0--
A---------------------------------------------------------------
E---------------------------------------------------------------
 

 
Από: petros, στις 16-12-2009:
paides akougete pl kalo...st idio tragoudi p iparxi -2 imitona...vgenei etsi opws einai edw kato:

F
Καλήν ημέραν άρχοντες
       C                   F C   F
Κι αν εί- κι αν είναι ορισμό-ος σας
Χριστού τη θεια γέννηση
Να πω στ’ αρχοντικό σας
 

 
Από: μαρια, στις 02-12-2007:
η τελευταία στροφή δεν πρεπει να γράφεται
 

 
Από: Kostas, στις 23-12-2006:
D                      A  G   D
Καλήν ημέραν άρχοντες
         Em          D     A     D  G   D
Κι αν εί- κι αν είναι ορισμό-ος σας
.......................................
Και για τους αρχάριους πιο απλά:
D                      A        D
Καλήν ημέραν άρχοντες
         Em                         D (G)  D
Κι αν εί- κι αν είναι ορισμό-ος σας
Αυτό που είναι σε παρένθεση (το G) αν προλαβαίνετε το παίζετε κανονικά, αλλιώς ή πατήστε αντ' αυτού την 1η(Μι καντίνι) χορδή στο 3ο τάστο (νότα Σολ) ή αφήστε το.
Είναι κάλαντα, είναι πασίγνωστα, είναι εύκολα και έχουν το δικαίωμα αλλά και μπορούν όλοι να τα παίξουν!!!
Ευχαριστώ και χρόνια πολλά!!!
 

 

Προσθέστε το δικό σας σχόλιο / διόρθωση / αφιέρωση:
 
Το όνομά σας:
Το e-mail σας:
Κείμενο:
Προσοχή! Σχόλια υβριστικά ή άσχετα με το συγκεκριμένο τραγούδι θα διαγράφονται άμεσα!
Επαλήθευση:
Παρακαλούμε εισάγετε τους παρακάτω χαρακτήρες: