logo

 
2002 - Αγρύπνια

Αγρύπνια

Παπακωνσταντίνου Θανάσης

 

Μουσική/Στίχοι: Παπακωνσταντίνου Θανάσης/Παπακωνσταντίνου Θανάσης

Από: pityian
Στις: 08-01-2003
(2.9, με 17 ψήφους)
 

Αξιολογήστε την παραπάνω καταγραφή του τραγουδιού:    Ακριβής     Λανθασμένη

Βρήκατε κάποιο λάθος; Δηλώστε το παρακάτω, ή χρησιμοποιήστε την Αποστολή Διόρθωσης.

 

Η χρήση επιτρέπεται μόνο για προσωπική μελέτη και για εκπαιδευτικούς λόγους.
Η παραπάνω καταγραφή δηλώνει την προσωπική γνώμη του αποστολέα για τον τρόπο με τον οποίο μπορεί να παιχτεί το παραπάνω τραγούδι.

 

Αλλαγή τόνου: ημιτόνια

Απόκρυψη tablature

Απόκρυψη συγχορδιών

Εκτύπωση

YouTube

Facebook

 

Σύμφωνα με τα στατιστικά μας, σας προτείνουμε να συνεχίσετε με ένα από τα παρακάτω τραγούδια:
 
Βρέθηκαν και άλλες εκδόσεις αυτού του τραγουδιού (ή τραγούδια με παρόμοιους στίχους):
 
 

Σχόλια / Διορθώσεις / Αφιερώσεις:
 
Από: Green Onion, στις 31-03-2010:
Ακούω 2 κιθάρες και κοντραμπάσο. Η μία είναι αυτή που ξεκινάει το κομμάτι και η δεύτερη αυτή που παραθέτει o Trypios - σε 7/8.
 

 
Από: Trypios, στις 13-02-2010:
@Messie

Κι εγώ δε μπορώ να καταλάβω γιατί κάποιος ανίδεος να νομίζει πως το έχει διορθώσει κι όλας.
Η παράθεση του Pityian μια χαρά παίζεται κι από μέτριο παίχτη.
Ο πιο κοντινός είναι ο Θάνος αν και προσθέτω κι εγώ το δικά μου:
7/8
 |---------------|-----0-----0-1-|---------------|---------------|
|-----2-----2---|---2-----2-----|-----2-----2---|-----1-----4-2-|
|---3-----3---3-|-3-----3-------|---3-----3---3-|---2-----2-----|
|-3-----3-------|---------------|-3-----3-------|-3-----3-------|
|---------------|---------------|---------------|---------------|
|---------------|---------------|---------------|---------------|

Τα μπάσα τα παίζει κόντραμπάσο
 

 
Από: (ανώνυμο), στις 16-05-2009:
geia sou re thanasi morfi...!!!!!!!!
enan se xoume......................................................................................................................................................................................!!!!!!!!!!!!!!!
 

 
Από: Θάνος, στις 06-02-2009:
Εγώ το άρπισμα το ακούω έτσι:

|--------------------0-----0-1---|-----------------------------|
|------2-----2-------------------|-----2-----2-------1-----4-2-|
|----3-----3---3---3-----3-------|---3-----3---3---2-----2-----|
|--3-----3-------4-----4---------|-3-----3-------3-----3-------|
|--------------------------------|-----------------------------|
|--------------------------------|-----------------------------|

Νομίζω ότι τα μπάσα είναι άλλη κιθάρα, αυτή που μπαίνει πρώτη στην αρχή για 2 επαναλήψεις πριν αρχίσει το άρπισμα.
 

 
Από: AnNa__music_is_life__, στις 02-09-2008:
apla monadiko... apo ta pio iperoxa tragoudia pou akousa pote..
 

 
Από: NικΓρ, στις 11-02-2008:
Ο άραβας "τραγουδιστής" που λέει την προσευχή λέγεται abdul hamid al seyed και το κομμάτι από το κοράνι που απαγγέλει λέγεται habad al dafiri. Από τις κορυφαίες δημιουργίες του σύγχρονου τραγουδιού παγκοσμίως. Ανατριχιαστικό
 

 
Από: Messie, στις 01-11-2007:
οντως δεν μπορω να καταλαβω αν αυτοι που στελνουν το tab εχουν δοκιμασει να παιξουν το κομματι και αν τους φαινεται ευκολο.. εκτος αν εισαι paco de lucia τι να πω... δοκιμαστε αυτο:

|----------------------------0-1-|-----------------------------|
|------2-------------2-----------|-----2-----2-------1-----1---|
|----3-----3---3---3-----3-------|---3-----3---3---2-----2---2-|
|--------------------------------|-----------------------------|
|--1-----1---1-------------------|-1-----1---------------------|
|----------------2-----2---------|---------------1-----1-------|
 

 
Από: αναλυσέ_το, στις 22-12-2003:
Το αρπισμα θα γινει ευκολοτερο εαν κουρδισετε την μι(πριμα)
εναν τονο κατω(ρε) και βαλετε καποταστο στο πρωτο ταστο.ομοιως ευκολο θα γινει κουρδιζωντας την μι(πριμα) σε ρε# (ενα ημιτονιο παρακατω) επισης με καποταστο στο πρωτο ταστο.