logo

 
1997 - Ο δρόμος, ο χρόνος και ο πόνος

Μαύρη πεταλούδα

Ιωαννίδης Αλκίνοος

 

Μουσική/Στίχοι: Ιωαννίδης Αλκίνοος/Ιωαννίδης Αλκίνοος

Στις: 16-05-2000
(3.1, με 16 ψήφους)
 

Αξιολογήστε την παραπάνω καταγραφή του τραγουδιού:    Ακριβής     Λανθασμένη

Βρήκατε κάποιο λάθος; Δηλώστε το παρακάτω, ή χρησιμοποιήστε την Αποστολή Διόρθωσης.

 

Η χρήση επιτρέπεται μόνο για προσωπική μελέτη και για εκπαιδευτικούς λόγους.
Η παραπάνω καταγραφή δηλώνει την προσωπική γνώμη του αποστολέα για τον τρόπο με τον οποίο μπορεί να παιχτεί το παραπάνω τραγούδι.

 

Αλλαγή τόνου: ημιτόνια

Απόκρυψη tablature

Απόκρυψη συγχορδιών

Εκτύπωση

YouTube

Facebook

 

Σύμφωνα με τα στατιστικά μας, σας προτείνουμε να συνεχίσετε με ένα από τα παρακάτω τραγούδια:
 
 

Σχόλια / Διορθώσεις / Αφιερώσεις:
 
Από: Savvas, στις 14-07-2012:
 F         C      Gm   
Μαύρη πεταλούδα παράξενη
Stin Gm nomizw pai kalitera Am .. Euxaristw..
 

 
Από: Bruno, στις 15-04-2009:
κατ'εμέ στο "και όποιος δε θυμάται" αντί για τη Dm,
πιο ταιριαστή είναι η Gm.
 

 
Από: Ξένος, στις 23-09-2007:
Στο live με την ηλεκτρική ο Αλκίνοο; το παίζει έτσι...

E||-----------11-10-----||
B||-----------11-10-----||
G||------------------------||
D||--0--------------------||
A||------5----------------||
E||------------------------||
 

 
Από: (ανώνυμο), στις 17-05-2007:
epistefto..
 

 
Από: BYΘΟΣ band, στις 02-05-2006:
E||-----------11-10--------||
B||------------------------||
G||------------------------||
D||--1-0-------------------||
A||------------------------||
E||------------------------||

κατά την γνώμη μου έτσι είναι η εισαγωγή...