logo

 
ΕρμηνευτέςΤίτλοιΔημιουργοίΑποστολείςTop 40ΝέαΕύρεση

Η τράτα

Παπακωνσταντίνου Θανάσης

Μουσική/Στίχοι:

Αποστολέας: Νίκος Τσίλης
Στάλθηκε: 09-01-2012
(4.9/5.0, με 74 ψήφους)
 
Εισαγωγή: ] 2x
 
Em            C   Dsus4 D   Em
E-7-5-7s8-7-5-----------------
B-------------8-7-5-5-7s8-7-5-
G-----------------------------
D-----------------------------
A-7-7--7--7-7-7-7-7-7--7--7-7-
E-----------------------------
 
  Em            D    Am
Είναι μια τράτα ολόχρυση
  G          D Em
με σουρωτήρι πάτο
                 D    Am
στο σκότος πλέει αβύθιστη
  G         D   Em
με πλήρωμα φευγάτο
 
Em
 
Αντί πανιά πουκάμισα
και για κουπιά τα χέρια
ψαρεύει αναστεναγμούς
και τους πουλάει στ' αστέρια
 
Em              D   Em
Ορέ η βάρκα μας, γκιόσα
                D   Am
ορέ η κουρελού, γκιόσα
   Bm           G   Dm  Em
Ρε πότε 'δω και πότε αλλού
   Bm         G   Dm  Em
μες τα πελάγη τ' ουρανού
   Bm             G  Dm  Em
Ορέ πότε 'δω και πότε αλλού
   Bm         G Dm Em
η βάρκα μας η κουρελού
 
Εισαγωγή ] 2x
 
Em       C   Dsus4  D  Em
 
Χιλιάδες μάτια την κοιτάν
καρδιές την προσκυνάνε
κι όσοι παραλογίζονται
που πάει τη ρωτάνε
Em
Πηγαίνω μεσοπέλαγα
με τ' άλμπουρα της νίκης
για να χτενίσω τα λυτά
μαλλιά της Βερενίκης
 
Ορέ η βάρκα μας...
 
Φεγγάρι παλιοφέγγαρο
φεγγάρι μεταξένιο
τη νύχτα κάνεις φωτεινή
κι εμένα αλλοπαρμένο
Em
Οι πρώτοι και καλύτεροι
σε ψάχναν στα ρυάκια
κι εγώ από τη Λάρισα
σου στέλνω τραγουδάκια
 
Em              D   Em
Ορέ η βάρκα μας, γκιόσα
                D   Am
ορέ η κουρελού, γκιόσα
   Bm           G  Dm  Em
Ρε πότε 'δω και πότε αλλού
   Bm         G   Dm Em
μες τα πελάγη τ' ουρανού
   Bm             G  Dm  Em
Ορέ πότε 'δω και πότε αλλού
   Bm         G Dm  Em
Σελήνη  μας η κουρελού
 
Εισαγωγή   ] 2x
 

Αξιολογήστε την παραπάνω καταγραφή του τραγουδιού:    Ακριβής     Λανθασμένη

Βρήκατε κάποιο λάθος; Δηλώστε το παρακάτω.

 

Η χρήση επιτρέπεται μόνο για προσωπική μελέτη και για εκπαιδευτικούς λόγους.
Η παραπάνω καταγραφή δηλώνει την προσωπική γνώμη του αποστολέα για τον τρόπο με τον οποίο μπορεί να παιχτεί το παραπάνω τραγούδι.

 

Αλλαγή τόνου: ημιτόνια

Απόκρυψη tablature

Απόκρυψη συγχορδιών

Εκτύπωση

Αναζήτηση στο YouTube για αυτό το τραγούδι

Μοιραστείτε αυτό το τραγούδι στο Facebook

 

Σύμφωνα με τα στατιστικά μας, σας προτείνουμε να συνεχίσετε με ένα από τα παρακάτω τραγούδια:
 
Η τράτα - Παπακωνσταντίνου Θανάσης (Παπακωνσταντίνου Θανάσης)
Αποσπερίτης - Παπακωνσταντίνου Θανάσης (Παπακωνσταντίνου Θανάσης)
Ανδρομέδα - Παπακωνσταντίνου Θανάσης (Παπακωνσταντίνου Θανάσης)
Παλιά Πληγή - Παπακωνσταντίνου Θανάσης (Παπακωνσταντίνου Θανάσης)
Παλιά πληγή - Παπακωνσταντίνου Θανάσης (Παπακωνσταντίνου Θανάσης)
San Michele - Παπακωνσταντίνου Θανάσης (Παπακωνσταντίνου Θανάσης)
Στην Αμερική - Μάλαμας Σωκράτης (Παπακωνσταντίνου Θανάσης)
Στη κοιλάδα των Τεμπών - Μάλαμας Σωκράτης (Παπακωνσταντίνου Θανάσης)
Ανδρομέδα - Παπακωνσταντίνου Θανάσης (Παπακωνσταντίνου Θανάσης)
Διάφανος - Μάλαμας Σωκράτης (Παπακωνσταντίνου Θανάσης)
Στυλίτης - Κανά Μελίνα (Παπακωνσταντίνου Θανάσης)
Πεχλιβάνης - Παπακωνσταντίνου Θανάσης (Παπακωνσταντίνου Θανάσης/Παπακωνσταντίνου Θανάσης)
Στις χαραυγές ξεχνιέμαι - Μιχαήλ Γιώργος (Παπακωνσταντίνου Θανάσης)
Αποσπερίτης - Παπακωνσταντίνου Θανάσης (Παπακωνσταντίνου Θανάσης)
Βρέθηκαν και άλλες εκδόσεις αυτού του τραγουδιού (ή τραγούδια με παρόμοιους στίχους):
 
Η τράτα - Παπακωνσταντίνου Θανάσης (Παπακωνσταντίνου Θανάσης)
 

Σχόλια / Διορθώσεις / Αφιερώσεις:
 
Από: nick, στις 10-02-2012:
Παιδια αν στην αρχη θα ξεκιναει λεγοντας ΄΄ειναι μια τρατα΄΄ η ΄΄με μια τρατα΄΄ειναι στην κριση του καθενος το εχω ακουσει και με τις δυο εκδοχες απο τον Θαναση...
 

 
Από: theots, στις 14-04-2014:
----7---------------7----------5----7----8----7-----------5--------------------------------------------------------------------------0---------
----------0---------------0---------------------------0---------0----8----------7-------------5------------5-----7-----8-----7----------------
---------------0-------------------------------------------------------------0----------0------------0--------------------------------------------
--------------------------------------------------------------------------------------------------------------------------------------------------
--------------------------------------------------------------------------------------------------------------------------------------------------
----7------------------------------------------------------------------------------------------0-----------------------------(7)-----7---------
 

 
Προσθέστε το δικό σας σχόλιο / διόρθωση / αφιέρωση
 

Kithara International, Vanuatu. All rights reserved.

1.0526 sec