logo

 
ΕρμηνευτέςΤίτλοιΔημιουργοίΑποστολείςTop 40ΝέαΕύρεση

Έμεινα εδώ

Ρόκκος Στέλιος

Μουσική/Στίχοι:

Αποστολέας: Μανώλης Πούρικας
Στάλθηκε: 17-04-2010
(4.1/5.0, με 85 ψήφους)
 
Επειδή είναι κρίμα ένα τέτοιο τραγούδι να παίζεται λάθος, ορίστε το σωστό μαζί με την εισαγωγή:)
 
Intro:
 
E-------------------------------------------------------
B--9-10-------------------------9-10--------------------
G-------11-9--9-8--9-8----8-9--------11-9--9-8--9-8-----
D----------------------11---------------------------11--
A-------------------------------------------------------
E-------------------------------------------------------
 
E-------------------------------------------------------
B-------------------------------9-10--------------------
G-----8-9-8-9--9-8--9-8----8-9-------11-9--9-8--9-8-----
D--11-------------------11--------------------------11--
A-------------------------------------------------------
E-------------------------------------------------------
 
B                             E                      G#m
Κάποιο βράδυ σου’ χα πει πως θέλω να γυρίσω όλο τον κόσμο
       F#
όλο τον κόσμο
B                              E                               G#m
Και συ μου γέλασες γλυκά και μου ‘πες πως το φιλί μου μυρίζει δυόσμο, μυρίζει
  F#
δυόσμο
 
E                              F#                   G#m
Κάποιο βράδυ σου’ χα πει, πως θέλω να πετάξω σαν πουλί
              F#
πάνω απ’ τον κόσμο
E                           F#                          G#m                F#
Και συ ζωγράφισες φτερά σ' ένα λευκό χαρτί και μου ‘πες φως μου, μη φύγεις φως μου
 
            G#m    F#            E
Και ‘μεινα εδώ να μη σου λείψει τίποτα
        G#m   F#       E
έμεινα εδώ να μη φοβηθείς
Να μη μείνεις μόνη σου και ‘γω στο τίποτα
έμεινα εδώ να μη μαραθείς
 
Κάποιο βράδυ μου ‘χες πει πως πρέπει να γεννήθηκα για σένα, μόνο για σένα
Και ‘γω σε πήρα αγκαλιά και χάθηκα στα μάτια σου τα μαγεμένα, τα μαγεμένα
Κάποιο βράδυ μου ‘χες πει πως δε μπορείς να ζήσεις μια στιγμή, χωρίς εμένα
Και ‘γω δε μίλησα ξανά γιατί στα χέρια μου είχα εσένα μόνο εσένα
 
Keep Rocking:)
 

Αξιολογήστε την παραπάνω καταγραφή του τραγουδιού:    Ακριβής     Λανθασμένη

Βρήκατε κάποιο λάθος; Δηλώστε το παρακάτω.

 

Η χρήση επιτρέπεται μόνο για προσωπική μελέτη και για εκπαιδευτικούς λόγους.
Η παραπάνω καταγραφή δηλώνει την προσωπική γνώμη του αποστολέα για τον τρόπο με τον οποίο μπορεί να παιχτεί το παραπάνω τραγούδι.

 

Αλλαγή τόνου: ημιτόνια

Απόκρυψη tablature

Απόκρυψη συγχορδιών

Εκτύπωση

Αναζήτηση στο YouTube για αυτό το τραγούδι

Μοιραστείτε αυτό το τραγούδι στο Facebook

 

Σύμφωνα με τα στατιστικά μας, σας προτείνουμε να συνεχίσετε με ένα από τα παρακάτω τραγούδια:
 
Κι έμεινα εδώ - Στόκας Μπάμπης (Κωνσταντόπουλος Αλκιβιάδης)
Έλεγες - Μέλισσες (Μέλισσες/Παπαγεωργίου Μαρία & Φράγκου Ζωή)
Είμαι δικός σου - Ρόκκος Στέλιος (Ρόκκος Στέλιος/Γεροθόδωρου Βίκυ)
Βρέθηκαν και άλλες εκδόσεις αυτού του τραγουδιού (ή τραγούδια με παρόμοιους στίχους):
 
 

Σχόλια / Διορθώσεις / Αφιερώσεις:
 
Από: (ανώνυμο), στις 16-08-2010:
to intro dn paei etc pezete mono me tc e&b !!! alla teca !
 

 
Από: (ανώνυμο), στις 27-08-2010:
sigoura pezaite etsi???an oxi tote poio einai to swsto
 

 
Από: billys christou, στις 03-09-2010:
E--------------------------------------------------
B--9-10-9------------------------------------------
G----------11-9--11b-8--8-9-8-----8-9--------------
D------------------------------11------------------
A--------------------------------------------------
E--------------------------------------------------

E-------------------------------------------------------
B--9-10-9-----------------------------------------------
G---------11-9-11b-8-8-9-8-------------------------------
D---------------------------11--------------------------
A-------------------------------------------------------
E-------------------------------------------------------

E-------------------------------------------------------
B-------------9-10--------------------------------------
G----6-8-9-6-------11-8-9-8-----------------------------
D----------------------------11-------------------------
A-------------------------------------------------------
E-------------------------------------------------------

E-------------------------------------------------------
B---9-10-9---------------------------------------------- G----------11-9--11b-8-8-9-8----------------------------
D----------------------------11-------------------------
A-------------------------------------------------------
E-------------------------------------------------------
 

 
Από: deleter, στις 25-01-2011:
ego exo mia poio eukoli version isos omos oxi toso kali... tin ebgala me to auti....

E--------------------------------------------
B--15-16-15-13-11-13-10--10-11-10-8-10-11----

E------------------------------------
B--15-16-15-13-11-13-10--11-10-8-----


E----------------------------------------
B--8-10-11-8-11-13-10--10-11-10-8-10-11--

E------------------------------------
B--15-16-15-13-11-13-10--11-10-8-----

milao gia to intro safos k einai mia poio eukoli version autou tou tragoudiou(toulaxiston emena m akougete oraia :P)
 

 
Από: marios, στις 07-02-2011:
filaraki wraio to intro alla apo lathos tonikothta se sxesh me to prototypo apopsh mou
einai pio swsto na ksekinhsei apo re# gia nota h eisagwgh!!!!
 

 
Από: Vasileios Prassas, στις 23-02-2011:
File to intro poli kalo kai einai se sosti tonikotita me to kommati. To mono lathos pou vlepo ego einai i B i opoia ofeilei na einai Bsus4 kai tin paizeis etsi:
e---0-------------
b---0-------------
g---8-------------
d---9-------------
a---9-------------
e---7-------------
me auti ti sigordia paizei kai to arpisma meta to intro. psaksto
 

 
Από: (ανώνυμο), στις 26-04-2011:
to intro einai opws to grafei o deleter alla ena tasto pio psilo
 

 
Από: thelegent923, στις 17-05-2011:
re paidia akouste  oti intro exete steilei einai la9os sygnomi pou sas ypotimo omws 3ekinaei apo to 11o tasto kai meta vgalte to me to ayti ws panw. deite to kai sto youtube sto live apo to radio arvyla
 

 
Από: (ανώνυμο), στις 01-06-2011:
paides borite na grapsete se tab to tragoudi???(oxi to intro)
 

 
Από: rafael, στις 15-06-2011:
E-------------------------------------------------------
B--9-10-------------------------9-10--------------------
G-------11-9--9-8--9-8----8-9--------11-9--9-8--9-8-----
D----------------------11---------------------------11--
A-------------------------------------------------------
E-------------------------------------------------------
 
E-------------------------------------------------------
B-------------------------------9-10--------------------
G-----8-9---9--9-8--9-8----8-9-------11-9--9-8--9-8-----
D--11----11-------------11--------------------------11--
A-------------------------------------------------------
E-------------------------------------------------------


Νομιζω ετσι ειναι πιο σωστα
 

 
Από: babis, στις 28-10-2011:
thelegent923:mhpws mporeis na t steileis ec?
gt ontos arxozei apo t 11o tasto..euxaristw
 

 
Από: roulitsa, στις 08-11-2011:
μηπως μπορει καποιος να μου πει πως ειναι ο αρπισμος μεσα στο κομματι?οχι στην εισαγωγη.ευχαριστω...
 

 
Από: dimitris kotretsos, στις 25-11-2011:
H εισαγωγη παιζεται πανω στα ακορντα σολ#μινορε/φα#/μι#.Θα ξεκηνισετε την πρατη σας νοτα απο σι χορδη τεταρτο ταστο.(ρε#)Τα ακορντα παντως ειναι ολοσωτα
 

 
Από: dimitris kotretsos, στις 25-11-2011:
ξεκολειστε απο το 11 ταστο.η κλιμακα της εισαγωγης ειναι η ΣΟΛ#ΑΙΟΛΙΚΗ(ΜΙΝΟΡΕ)Εσεις πατε να την παιξετε απο ΝΤΟ#ΑΙΟΛΙΚΗ για αυτο και σας βγαινει λαθος
 

 
Από: Tasos.D, στις 26-11-2011:
paidia ksero pos einai to solo alla den kserw pws na to grapsw
 

 
Από: eirini, στις 10-12-2011:
tasos.D xalara...einai poly aplo...yparxoun dyo tropoi..
1)grafeis apla ti notes prepei na patame kai tis xwrizeis me -------> /
2)h grafeis tis notes ths kitharas (mi,la,re,sol,si,mi) kai grafeis tous arithmous twn tastwn sthn analogh thesh....
synhthws xrhsimopoioume to deutero alla an se boleuei to prwto....
 

 
Από: xristos 13, στις 11-12-2011:
E--9--10--9-------------------------------------------
B---------12--10--10--12--9--9--10----9--10-----------
G-----------------------------------11----------------

E--9--10--9---------------------------------------------------------------
B-----------12--10--10--12--9--9--10------9--10--10--12-9-9-10----9--10---
G------------------------------------11-11---------------------11---------

E--9--10--9---------------------------
B---------12--10--10--12--9--9--10---
G-----------------------------------11

gia na min pedeveste auti einai i pio sosti eisagogi
 

 
Από: dims, στις 17-12-2011:
ουτε αυτη ειναι σωστη
 

 
Από: xristos 13, στις 18-12-2011:
auti einai
 

 
Από: (ανώνυμο), στις 23-12-2011:
Από: xristos 13, στις 11-12-2011:

E--9--10--9-------------------------------------------
B---------12--10--10--12--9--9--10----9--10-----------
G-----------------------------------11----------------

E--9--10--9---------------------------------------------------------------
B-----------12--10--10--12--9--9--10------9--10--10--12-9-9-10----9--10---
G------------------------------------11-11---------------------11---------

E--9--10--9---------------------------
B---------12--10--10--12--9--9--10---
G-----------------------------------11


κατεβαστε τα 2 ταστα κατω ολα ...δλδ 9--->11 
10--->12
 

 
Από: βερουτης σωτηρης, στις 30-12-2011:
E--11-12-11--------------------------------
B-----------14-12-12(14)--11-11-12-11-9-11-12-

E-11-12-11---------------------------------------------------------------
B---------14-12-12(14)-11-11-12-11-9-9-11-12-9-12-12(14)-11-11-12-11-9-11-12

E-11-12-11--------------------------
B---------14-12-12(14)-11-11-12-11-9

 opou exei thn paren8esh einai glistrima apo thn 12 sth 14 xtipame th 12 kai sernoume sto 14

           G#m    F#            E
Και ‘μεινα εδώ να μη σου λείψει τίποτα
        G#m   F#       E
έμεινα εδώ να μη φοβηθείς
        F#    G#m     F#           E
Να μη μείνεις μόνη σου και ‘γω στο τίποτα
        G#m   F#       E
έμεινα εδώ να μη μαραθείς
 

 
Από: Tasos.D, στις 30-01-2012:
Paidia auto pou egrapse o veroutis sotiris einai i ektelesi apo to radio arvila me ton roko kai ton gio tou..auto ithela na sas egrafa kai egw..alla argisa na mathw ton tropo..Etsi einai to sosto solaki.
 

 
Από: (ανώνυμο), στις 27-02-2012:
MPOREI KAPOIOS NA BREI TON DAKTYLISMO?
 

 
Από: γιαννης mindtrapper, στις 27-02-2012:
E--9-10-9-----------------------9-10-9----------------------
B--------12-10-12-9-10-9-7-9-10-------12-10-12-9-10-9-7-----

E-----------------------------9-10-9-----------------
B-7-9-10-7-10-12-9-10-9-7-9-10------12-10-12-9-10-9-7-

για μενα αυτη ειναι η σωστη εκτελεση του σολο που επαιξε στο ραδιο αρβυλα (ακουγετε πιο σωστα !!)
 

 
Από: Phil, στις 02-03-2012:
E ----------------------------------------------------------------------------------------
B -----15-16-15--13-----------------------------------------------------------------------
G --------------------15---17-14---15---14-12-14-15---------------------------------------
D ----------------------------------------------------------------------------------------
A ----------------------------------------------------------------------------------------
E ----------------------------------------------------------------------------------------

E ----------------------------------------------------------------------------------------
B -----15-16-15--13-----------------------------------------------------------------------
G --------------------15---17-14---15---14-12-----12-14-15-12--15-17-14---15---14-12-14-15
D ----------------------------------------------------------------------------------------
A ----------------------------------------------------------------------------------------
E ----------------------------------------------------------------------------------------

E ----------------------------------------------------------------------------------------
B -----15-16-15--13-----------------------------------------------------------------------
G --------------------15---17-14---15---14-12---------------------------------------------
D ----------------------------------------------------------------------------------------
A ----------------------------------------------------------------------------------------
E --------------------------------------------------------------------------------------
 

 
Από: panagiotis7, στις 02-03-2012:
paidia otnws tou verouti einai mallon oloswsto.paikste to kai akouste kai auto apo to radio arvila na deite
 

 
Από: panagiotis7, στις 02-03-2012:
vevaia einai swsto sumfwna me auto p paixtike sto radio arvula gt kanonika einai teleiws diaforetiko meta apo kapoio simeio se sxesi me tin kanoniki ektelesi,opou tairiazei mexri to simeio pou leei "...na min fovi8eis",ka8ws meta allazei teleiws.
 

 
Από: Tasos, στις 19-03-2012:
paidia mipws kapoios mporei na m steile ta tabs gia to arpisma?
 

 
Από: ΓΙΑΝΝΗΣ, στις 30-03-2012:
ΠΑΙΔΙΑ ΕΙΜΑΙ ΕΝΤΕΛΩΣ ΑΡΧΑΡΙΟΣ. ΜΠΟΡΕΣΑ ΟΜΩΣ ΒΛΕΠΟΝΤΑΣ ΤΟ ΩΡΑΙΟ ΣΧΟΛΙΟ ΤΟΥ ΒΕΡΟΥΤΗ ΣΩΤΗΡΗ ΝΑ ΒΓΑΛΩ ΤΗΝ ΠΑΡΑΚΑΤΩ ΕΚΔΟΣΗ ΓΙΑ ΕΙΣΑΓΩΓΗ ΠΟΥ ΑΚΟΥΓΕΤΑΙ ΤΕΛΕΙΑ ΚΑΙ ΕΙΝΑΙ ΕΥΚΟΛΗ. ΣΥΓΝΩΜΗ ΒΕΡΟΥΤΗ ΑΛΛΑ ΓΙΑ ΣΕΝΑ ΕΙΝΑΙ ΣΙΓΟΥΡΑ ΓΕΛΕΙΟ ΝΑ ΠΑΙΖΕΙΣ ΜΕ ΤΙΣ ΧΟΡΔΕΣ ΜΕ ΧΤΥΠΗΜΑΤΑ ΚΤΛ ΑΛΛΑ ΓΙΑ ΚΤ ΤΥΠΟΥΣ ΣΑ Κ ΕΜΕΝΑ ΕΙΝΑΙ ΠΟΛΥ ΔΥΣΚΟΛΟ.

Ε--11-12-11
Β----------14-12----14-11-----11-12-11-9-11-12

Ε-11-12-11
Β---------14-12------14-11-----12-11-9

Β----9-11-12-9-12-----14-11----11-12-11-9-11-12

Ε--11-12-11
Β----------14-12-----14-11------12-11-9

ΟΠΟΥ ΕΧΕΙ ΜΙΑ ΠΑΥΛΑ ΤΑ ΧΤΥΠΗΜΑΤΑ ΕΙΝΑΙ ΓΡΗΓΟΡΑ ΚΑΙ ΟΠΟΥ ΕΧΕΙ ΠΟΛΕΣ ΧΤΥΠΗΣΤΕ ΜΕΤΑ ΑΠΟ ΛΙΓΟ. ΑΝ ΑΚΟΥΣΕΤΕ ΤΟ ΤΡΑΓΟΥΔΙ ΘΑ ΤΟ ΠΙΑΣΕΤΕ. ΟΛΕΣ ΤΙΣ ΧΟΡΔΕΣ ΧΤΥΠΗΣΤΕ ΤΕΣ ΚΑΝΟΝΙΚΑ. ΑΥΤΟΣ ΕΙΝΑΙ ΜΙΑ ΕΞΗΓΗΣΗ ΑΠΟ ΕΝΑΝ ΑΡΧΑΡΙΟ ΓΙΑ ΑΡΧΑΡΙΟΥΣ. ΕΥΧΑΡΙΣΤΩ ΜΑΓΚΕΣ. ΘΕΛΕΙ ΜΕΡΑΚΙ ΤΟ ΟΡΓΑΝΟ.
 

 
Από: Ηλέκτρα, στις 17-05-2012:
υπάρχει πιο εύκολος τρόπος για τη G#m αντί για

E ---4
B ---4
G 1
D 1
A --2
Ex
 

 
Από: giorgos , στις 13-10-2013:
vasika kai auto lathos einai
 

 
Από: Θανάσης, στις 16-01-2014:
Ηλεκτρα,Η G#m παιζεται ετσι απο τι ξερω
Ε - 4
Β - 4
G - 5
D - 6
A - 6
E - 4
Eγω ετσι παιζω
 

 
Από: Βλαδίμηρος, στις 03-03-2014:
Οι πιό πολλοί αρχάριοι δυσκολεύνται σε αυτές τις συγχορδίες. Οπότε ορίστε μια καλή βοήθεια!
Cm:
e - 3
B - 4
G - 5
D - 5
A - 3
E - 3

Gm
e - 3
B - 3
G - 3
D - 5
A - 5
E - 3

όλες οι συγχορδίες παίζονται και με μπαρέ! Και κατά τη γνώμη μου ακούγονται καλύτερα..
 

 
Από: ntinos, στις 14-03-2014:
εγω το παιζω με Β11 στο εβδομο ταστο,Ε, G#m kai F
 

 
Από: ntinos, στις 14-03-2014:
συγνωμη λαθος.το F ειναι F#
 

 
Από: giannis, στις 30-04-2014:
Παιδια δεν κανω πολυ καιρο μουσικη αλλα νομιζω το ιντρο τονικα ειναι σωστο αφου ειναι σε σι ματζορε. Λειπουν καποιες νοτες αλλα πιστεύω ειναι καθαρα στο αυτι και στο χερι του κιθαριστα να το προσθεσει πράγματα (slide, bends, hammers)
 

 
Από: μακεδονας, στις 18-05-2014:
C#                Bbm                 F#                               Bbm
Κάποιο βράδυ σου’ χα πει πως θέλω να γυρίσω όλο τον κόσμο
            G#
όλο τον κόσμο
C#                   Bbm             F#                                Bbm
Και συ μου γέλασες γλυκά και μου ‘πες πως το φιλί μου μυρίζει δυόσμο, μυρίζει
   G#
δυόσμο
 
F#                                        G#                           Bbm
Κάποιο βράδυ σου’ χα πει, πως θέλω να πετάξω σαν πουλί
                   G#
πάνω απ’ τον κόσμο
F#                                        G#                           Bbm G#
Και συ ζωγράφισες φτερά σ' ένα λευκό χαρτί και μου ‘πες φως μου, μη φύγεις φως μου
 
                 Bbm  G#                F#
Και ‘μεινα εδώ να μη σου λείψει τίποτα
            Bbm   G#        F#
έμεινα εδώ να μη φοβηθείς
 

 
Από: μακεδονας, στις 18-05-2014:
τα κορδα που εβαλα ποιο πανω εχουν μεταφερθη δεξια δεν ξερω το λογο
 

 
Από: GEORGIOS, στις 06-06-2014:
ΤΟ ΤΡΑΓΟΥΔΙ ΞΕΚΙΝΑΕΙ ΑΠΟ Βb.ΟΠΟΙΟΣ ΞΕΡΕΙ ΝΑ ΜΕΤΡΑΕΙ ΑΠΟ ΤΟ 1 ΩΣ ΤΟ 7 ΚΑΙ ΝΙΩΘΕΙ ΛΙΓΑΚΙ ΘΑ ΤΟ ΠΑΙΞΕΙ ΣΩΣΤΑ.!!!
 

 
Προσθέστε το δικό σας σχόλιο / διόρθωση / αφιέρωση
 

Kithara International, Vanuatu. All rights reserved.

1.0498 sec