logo

 
2006 - Οι άγγελοι μαθαίνουν να πετάνε

Όταν ο ήλιος θα πάψει ν' ανατέλλει

Αρτινός Στάθης

 

Μουσική/Στίχοι: /

Από: Giwrgos10
Στις: 05-09-2008
(4.2/5.0, με 95 ψήφους)
 

Αξιολογήστε την παραπάνω καταγραφή του τραγουδιού:    Ακριβής     Λανθασμένη

Βρήκατε κάποιο λάθος; Δηλώστε το παρακάτω, ή χρησιμοποιήστε την Αποστολή Διόρθωσης.

 

Η χρήση επιτρέπεται μόνο για προσωπική μελέτη και για εκπαιδευτικούς λόγους.
Η παραπάνω καταγραφή δηλώνει την προσωπική γνώμη του αποστολέα για τον τρόπο με τον οποίο μπορεί να παιχτεί το παραπάνω τραγούδι.

 

Αλλαγή τόνου: ημιτόνια

Απόκρυψη συγχορδιών

Εκτύπωση

YouTube

Facebook

 

Σύμφωνα με τα στατιστικά μας, σας προτείνουμε να συνεχίσετε με ένα από τα παρακάτω τραγούδια:
 
Βρέθηκαν και άλλες εκδόσεις αυτού του τραγουδιού (ή τραγούδια με παρόμοιους στίχους):
 
 

Σχόλια / Διορθώσεις / Αφιερώσεις:
 
Από: Anastasia, στις 15-02-2013:
αφιερωμενο σε κεινα τα τεραστια πρασινα ματια..
 

 
Από: μαθαινω, στις 19-09-2012:
ναι και τελικα ειναι πολυ ευκολο κομματι γενικα και παιρνει και πολλες μετατροπες(ο καθνενας να βαζει την πινελια του) ωραιοι παιδες ευχαριστω για τις γνωμες!
 

 
Από: Kwsths, στις 07-07-2012:
afierwmeno auto to teleio tragoudi stn lydia mmm p tn agapaw perissotero apo tn zwh mmm! <3 isws ka8e nota kai tasto p pianw otan paizw uto to tragoudi na niw8w tn 4yxh ths agaphs m!se latreyw...<3
 

 
Από: (ανώνυμο), στις 05-05-2012:
xwris to 0 ekei sto telos p einai h epanalhpsh ;)
 

 
Από: pao13paul, στις 05-05-2012:
-----------0---------|-------------3----------|------------0----------|-------------3----------|
---------------1---0-|----------------0---0---|---------1------1---0--|----------------0---0---|
-------2----------2--|--------0---------0-----|-------2---2----- 2----|--------0---------0-----|
----2----2-----------|----------0-------------|----2------------------|----------0-------------|
--0------------------|-----0------------------|-----------------------|------0-----------------|
---------------------|---3--------------------|-----------------------|---3--------------------|

               C                                G          Em          G
---------------0--------|---------------3--------|--------------|-------------|
-----------------1---0--|-----------------0----0-|---------0----|--------0----|
------0------------0----|---------0---------0----|---------0-0--|--------0----|
----2---2---------------|-----------0------------|--------------|-------------|
--3---------------------|-------0----------------|-----2--------|-----2-------|
------------------------|----3-------------------|---0----------|---3---------|
       
           Am                            G
----------------------|--------------0------|
--------------0h1-----|--------------0h1----|
------2-------2-------|------2-------2------|
----2---2-----2-------| ----2---2---.2------|            kata th dikh m apopsh kapws etsi paei ;)
--0-------------------|--0------------------|
----------------------|---------------------|
 

 
Από: pao13paul, στις 05-05-2012:
s
 

 
Από: (ανώνυμο), στις 08-10-2011:
pedia epidi ime kenourios borite na mou pite ti enoite me to px (----2----4---1)?????
 

 
Από: μαθαινω..., στις 19-07-2011:
εχω την υποψια πως καπως ετσι ακουγετε καλυτερα
(σε στανταρ κουρδισμα) στο πρωτο Am

-------------------0------------------
------------1-----------------0------
-------2-------------------2---------
-------------------2------------------
---0----------------------------------
--------------------------------------- x

μπορει να κανω και λαθος βεβαια,ειμαι αυτοδιδακτος και χανω πολλες νοτες (εδικα οταν αφορα αρπισμο)
ευχαριστω.
 

 
Από: vaggelitsa-vasilis, στις 09-07-2010:
fovero to kommati!!ts proalles t akouda g proti fora p m t edeixe t mwraki mou..k gia proti fora t tragoudisame mazi..ara auto efierwmeno sto mwraki m pou t agapaw toso polu!
 

 
Από: Μανος, στις 06-02-2010:
          Am                             G                            Am G
------------0---------|-------------3----------|------------0----------|-------------3----------|
---------------1---1-|----------------3---3---|---------1------1---1-|----------------3---3---|
-------2----------2--|--------0---------0-----|-------2---2----- 2---|--------0---------0-----|
----2----2-----------|------0---0-------------|----2------------------|------0---0-------------|
--0-------------------|-------------------------|-----------------------|-------------------------|
----------------------|---3---------------------|-----------------------|---3---------------------|

               C                                G          Em          G
---------------0--------|---------------3---------|---------0----|--------3----|
-----------------1---1--|-----------------3----2-|---------0----|--------3----|
------0------------0----|---------0---------0----|---------0----|--------0----|
----2---2---------------|-------0---0------------|---------2----|--------0----|
--3---------------------|--------------------------|-----2--------|-----2-------|
-------------------------|----3--------------------|---0----------|---3---------|
       
           Am                            G
--------------.0-------|--------------.0-------
--------------.0h1----|--------------.0h1----|
------2-------2-------|------2-------2-------|
----2---2---..2-------| ----2---2---..2-------| 
--0--------------------|--0--------------------|
-----------------------|-----------------------|


na dior8wsw kati:P sto C ;)
 

 
Από: Μανος, στις 06-02-2010:
eimai sxedon sigouros oti einai etsi: 


          Am                             G                            Am G
------------0---------|-------------3----------|------------0----------|-------------3----------|
---------------1---1-|----------------3---3---|---------1------1---1-|----------------3---3---|
-------2----------2--|--------0---------0-----|-------2---2----- 2---|--------0---------0-----|
----2----2-----------|------0---0-------------|----2------------------|------0---0-------------|
--0-------------------|-------------------------|-----------------------|-------------------------|
----------------------|---3---------------------|-----------------------|---3---------------------|

               C                                G         Em          G
---------------0--------|---------------3---------|---------0----|--------3----|
-----------------1---1--|-----------------3----2-|---------0----|--------3----|
------0------------0----|---------0---------0----|---------0----|--------0----|
----2---2---------------|-------0---0------------|---------2----|--------0----|
--0---------------------|--------------------------|-----2--------|-----2-------|
-------------------------|----3--------------------|---0----------|---3---------|
       
           Am                            G
--------------.0-------|--------------.0-------
--------------.0h1----|--------------.0h1----|
------2-------2-------|------2-------2-------|
----2---2---..2-------| ----2---2---..2-------| 
--0--------------------|--0--------------------|
-----------------------|-----------------------|


st refrain einai t idio pattern apla alazoun t akorda! elpizw n voi8isa :)
 

 
Από: mano_s_, στις 24-11-2009:
paidia den eimai sigouros alla nomizw kapws etsi paei..
     
    Am                    G
e ------------0-----------------------3----------
b ---------1----1-0-1------------------0-----1---
g ------2--------------------------0--------0----
d ---2--------------------------0----------------
a -0-------------------------2-------------------
E -------------------------3---------------------    x2

   C                   G                                    
e ---------0---------------------3--------
b -------1---0-1------------------0----1--
g -----0----------------------0-------0---
d ---2---------------------0--------------
a -3---------------------2---------------- 
E ---------------------3------------------

    Em                         Am
e -------------------------------------
b ------------------------------1------
g -------0---0-----0---0--------2------
d ----- -2- -2------2- -2-------2------
a --2-----------2---------------0------
E --0------- --- 0---------------------


    Am
e --------------------------------------
b --------0^1---------1-----0^1----0^1--
g ----2-- 2----------2------2------2----
d --2---- 2--------2------ -2------2----
a --------0------0----------0------0----
E --------------------------------------

meta pali ap thn arxh…
 

 
Από: (ανώνυμο), στις 31-10-2009:
Paisdua opoios mporei k exei to tragoydi se tabs as to steilei k edw...(Irmoharrovic@hotmail.com)...THANKS!!
 

 
Από: Νικος, στις 30-07-2009:
se tabs paidia yparxei pou8ena to kommataki?
h' an kapoios 3erei na paizei to tragoudi as to synta3ei se mia morfh keimenou kai as mou to steilei...
euxaristw!!
bane.o.bane@hotmail.com
 

 
Από: imStavros, στις 14-05-2009:
afierwmeno sto elcaki mou...s'agapaw mwraki mou se latreuw
 

 
Από: nkarag, στις 09-04-2009:
se tabs re paidia????einai top to kmmati,plz...
 

 
Από: anna maria, στις 06-04-2009:
thumamai pou mou to afieroses kai mou to tragoudises aggele mou.s'eyxaristo pou yparxeis!!!!
 

 
Από: ena mellontiko asteri..., στις 11-03-2009:
eua mou kapote tha deis kati pou dn tha to pisteueis....
 

 
Από: Lady Vampiria, στις 08-03-2009:
Euharistw.. pou.. eisai.. mazi mou.. xana.. pou mu dineis.. logo.. na uparxo.. apla.. se euharistw..s'agapw,na thimase..
afieromeno sto atomo,pou mu emathe auto to kommati.. mikruli mou.. euharistw.
 

 
Από: γωγω..., στις 04-02-2009:
οταν ο ηλιος θα παψει να ανατελει ισως τοτε να παψω να σου λεω σ΄αγαπω...στν γιαννακη μ που ναι στα γιαννενα κ μ λειπει...
 

 
Από: γιαννης, στις 03-02-2009:
αφιερωμενο.......στα πιο γλυκα ματακια του κοσμου........!
 

 
Από: nikos, στις 21-01-2009:
Se tabs ? plz
 

 
Από: nisyros!!, στις 04-01-2009:
mwro m se latreyw..!!!!ax kai na hsoun mazi m!!!
 

 
Από: enoxovlema, στις 06-11-2008:
Polu omorfo kommati, bravo!!