logo

 
 

Της Δικαιοσύνης ήλιε νοητέ

Μπιθικώτσης Γρηγόρης

 

Μουσική/Στίχοι: /

Από: Verminoz
Στις: 09-05-2004
(2.7/5.0, με 43 ψήφους)
 

Αξιολογήστε την παραπάνω καταγραφή του τραγουδιού:    Ακριβής     Λανθασμένη

Βρήκατε κάποιο λάθος; Δηλώστε το παρακάτω, ή χρησιμοποιήστε την Αποστολή Διόρθωσης.

 

Η χρήση επιτρέπεται μόνο για προσωπική μελέτη και για εκπαιδευτικούς λόγους.
Η παραπάνω καταγραφή δηλώνει την προσωπική γνώμη του αποστολέα για τον τρόπο με τον οποίο μπορεί να παιχτεί το παραπάνω τραγούδι.

 

Απόκρυψη tablature

Εκτύπωση

YouTube

Facebook

 

Σύμφωνα με τα στατιστικά μας, σας προτείνουμε να συνεχίσετε με ένα από τα παρακάτω τραγούδια:
 
 

Σχόλια / Διορθώσεις / Αφιερώσεις:
 
Από: (ανώνυμο), στις 24-10-2010:
teleio
 

 
Από: agnostos, στις 17-10-2009:
e].12...7...3..5..7...8..10..8...7..12..10...8..10..8....7
e]..12...7...15..14..12....10..8..7..3...5..3..2..3.2.0
 

 
Από: σπυρος, στις 08-07-2009:
e|-----12----7----3--5--7--8-10-10---12--10--8-10-8-7--
B|-------------------------------------------------------
G|-------------------------------------------------------
D|-------------------------------------------------------
A|-------------------------------------------------------
E|-------------------------------------------------------
 
e|-----12----7----15--14--12--10--8--7*--5*--3*--2*--0---
B|-------------------------------------------------------
G|-------------------------------------------------------
D|-------------------------------------------------------
A|-------------------------------------------------------
E|------------------------------------------------------- 
το πρωτο ηθελε μερικες 
διορθωσεις αλλα πολλη καλη προσπαθεια
μπραβο φιλε μου
 

 
Από: κάποια, στις 21-04-2008:
εγώ 1 οκτάβα χαμηλότερα το παίζω έτσι:

e|-0---------------0---------------|
B|----0------0-1-3----3-1-3--1-0---|
G|-------0-2-----------------------|
D|---------------------------------|
A|---------------------------------|
E|---------------------------------|
 
e|-0-----3--2-0--------------------|
B|----0---------3-1-0--------------|
G|----------------------2-0--------|
D|--------------------2-----4--2---|
A|---------------------------------|
E|---------------------------------|
 

 
Από: Μπουλντόζας, στις 12-11-2007:
Συγνόμη φίλε δεν το 'θελα.
 

 
Από: Στράτος, στις 11-04-2006:
Να βοηθήσω λίγο!: Το πρώτο είναι σωστό μόνο που από το 0(μηδέν) αρχίζει η δεύτερη φωνή. Η πρώτη είναι 3-5-7-8-10-12-10-8-10-8-7.
Το δεύτερο μόνο στο τέλος λόγο ότι το τραγούδι έχει διφωνιές μπουζουκιού μπορεί να παιχτεί πιο ψηλά και με άλλη νότα.Π.χ αντί για το 7* νσ παίξεις 14*-17*-15*-14*-12.
Επίσης χρησιμοποιείται στο μπουζούκι και η τρίτη χορδή (μπάσα). Ελπίζω να βοήθησα.
 

 
Από: Σπύρος Καλ., στις 13-06-2005:
Το πρώτο μέρος είναι λάθος. Το δεύτερο είναι ολόσωστο.
 

 
Από: Anarchy, στις 12-05-2005:
Φιλαράκι Νίκο η ταμπλατούρα είναι σωστή. Εφόσον ισχυρίζεσαι πως ο Verminoz δεν έχει αυτί, υπονοείς ότι εσύ έχεις. Αν όμως ίσχυε αυτό θα είχες σίγουρα καταλάβει ότι το μέρος αυτό είναι η εισαγωγή, και όχι η μελωδία του κουπλέ. Κι εκτός αυτού, ακόμη κι αν ήταν όντως λάθος, κανείς δε σου δίνει το δικαίωμα να καταβαραθρώνεις με αυτόν τον απαίσιο τρόπο το ηθικό ενός ατόμου που προσπαθεί να εισέλθει στον κόσμο της μουσικής.
 

 
Από: Κανγκουρό, στις 14-04-2005:
 Τέλειο ταμλατούρ ακριβώς ότι έψαχχνα