logo

 
ΕρμηνευτέςΤίτλοιΔημιουργοίΑποστολείςTop 40ΝέαΕύρεση

Υπεραστικό

Ιωαννίδης Αλκίνοος

Μουσική/Στίχοι:

Αποστολέας: fran stafford
Στάλθηκε: 22-09-2002
(3.3/5.0, με 24 ψήφους)
 
 
(Εισαγωγή)
            G                         D
e-----------------3-------0-------------------2--------
B-----0-------------1-------------0--------3----3---3--
G-0h2----0-----0------0-------0h2---0---2----------2---
D---------------------------------------0--------------
A-----------------------------------------------------
E------------3------------3----------------------------
(Επανάληψη 2 φορές, και συνέχεια...)
 
            Em
e------------------0------------------------
B-----0--------------0------------------0---
G-0h2----0-----------------0------0h2----0--
D--------------2---------------2------------
A-----------------------2-------------------
E------------0------------------------------
 
   C       Am G         D
e---0------------------------2---------
B-------3--1--0------------3---3----3--
G-----------------2--0--2---------2----
D--------------------------------------
A---3---2--0------------0--------------
E-------------3------------------------
 
          G
e----------------3--------------
B-----0-------------1-----0-----
G—0h2---0----0---------0--------
D-------------------------------
A-------------------------------
E----------3--------------3---2-
 
(Κύριο μέρος – τραγούδι)
 
Δεν παί-.........παίρνεις.........πεις............αγαπάς...
   Em                       A
e------0----------0-------------2-------------
B--------0----------0--------------2----------
G----0-----0----0------0------2-------2----2--
D---------------------------------------------
A---------------------------0------------0----
E--0----------0-------------------------------
 
Δεν.......πια................ζω......ή αν...
         C             D7
e--------------0-------------2-------
B-----------------1------------1-----
G-----------0-------0-----2-------2--
D----------------------0-------------
A--0--2--3---------------------------
E------------------------------------
 
Χώρια σου..(πε)θαίνω........(σω)παίνω...στο...
   G        Em           Am
e-----------------0------------0-----
B-------------------0------------1---
G----0---0-----0------0-----2------2-
D------------------------------------
A------------------------0-----------
E--3---2-----0-----------------------
 
(κα)λώδιο.......ΟΤΕ............(πο)τε σου απα...
  Am/G       Am/F#          F
e-----0------------0------------1-----
B-------1------------1------------1---
G---2-----2------2-----2------2-----2-
D-------------------------------------
A-------------------------------------
E-3------------2------------1---------
 
..ντώ......(περι)μένω ..διαρ..κώς...
  Em          D
e-----0-----------2------2--
B-------0-----------3----3--
G---0-----0-----2-----2--2--
D-------------0----------0--
A---------------------------
E-0-------------------------
 
Δεν παίρνεις πια δεν παίρνεις πια να πεις πως μ’ αγαπάς
δεν παίρνεις πια να δεις αν ζω ή αν χώρια σου πεθαίνω
και γω σωπαίνω στο καλώδιο του ΟΤΕ και στο ποτέ σου απαντώ
και περιμένω διαρκώς...
 
Του ρου ρου ρου...
             G                         D
e-----------------3-------0-------------------2--------
B-----0-------------1-------------0--------3----3---3--
G-0h2----0-----0------0-------0h2---0---2----------2---
D---------------------------------------0--------------
A-----------------------------------------------------
E------------3------------3----------------------------
(Επανάληψη 2 φορές, και συνέχεια...)
 
Του ρου ρου ρου...
          Em
e------------------0------------------------
B-----0--------------0------------------0---
G-0h2----0-----------------0-------0h2---0--
D--------------2---------------2------------
A-----------------------2-------------------
E------------0------------------------------
 
Του ρου ρου ρου...
  C       Am G         D
e---0------------------------2---------
B-------3--1--0------------3---3----3--
G-----------------2--0--2---------2----
D--------------------------------------
A---3---2--0------------0--------------
E-------------3------------------------
 
Του ρου ρου ρου...
          G
e----------------3--------------
B-----0-------------1-----0-----
G—0h2---0----0---------0--------
D-------------------------------
A-------------------------------
E----------3--------------3---2-
 
(Επανάληψη κυρίως μέρους – οι δαχτυλισμοί όπως και παραπάνω)
 
Δεν παίρνεις πια δεν παίρνεις πια από τη Σαλονίκη
στη μαύρη Αθήνα να με βρει η μακρινή φωνή σου
και γω μαζί σου αν μιλώ ώσπου ο ύπνος να με πάρει
στο μαξιλάρι με το τηλέφωνο ανοιχτό
 
(και αμέσως συνέχεια με...)
 
Δεν παίρνεις πια....................δεν τηλεφωνείς..................
             G                         D
e-----------------3-------0-------------------2--------
B-----0-------------1-------------0--------3----3---3--
G-0h2----0-----0------0-------0h2---0---2----------2---
D---------------------------------------0--------------
A-----------------------------------------------------
E------------3------------3----------------------------
 
Πάει ..και....ρός..........................να με θυμη...
            Em
e------------------0------------------------
B-----0--------------0------------------0---
G-0h2----0-----------------0-------0h2----0--
D--------------2---------------2------------
A-----------------------2-------------------
E------------0------------------------------
 
  A                  C
..θείς, κι έτσι και......γω θα το ξερι...
 
..ζώ...σω..κι ας πας..στο κα..λό
   C       Am G         D
e---0------------------------2---------
B-------3--1--0------------3---3----3--
G-----------------2--0--2---------2----
D--------------------------------------
A---3---2--0------------0--------------
E-------------3------------------------
 
Του ρου ρου...
          G
e----------------3-----------
B-----0-------------1-----0---
G—0h2---0----0---------0------
D------------------------------
A-----------------------------
E----------3--------------3---
 
Ευχαριστώ την Kath Cross που άκουσε αυτό το τραγούδι και μου
έδειξε πως να το παίξω
 

Αξιολογήστε την παραπάνω καταγραφή του τραγουδιού:    Ακριβής     Λανθασμένη

Βρήκατε κάποιο λάθος; Δηλώστε το παρακάτω.

 

Η χρήση επιτρέπεται μόνο για προσωπική μελέτη και για εκπαιδευτικούς λόγους.
Η παραπάνω καταγραφή δηλώνει την προσωπική γνώμη του αποστολέα για τον τρόπο με τον οποίο μπορεί να παιχτεί το παραπάνω τραγούδι.

 

Αλλαγή τόνου: ημιτόνια

Απόκρυψη tablature

Απόκρυψη συγχορδιών

Εκτύπωση

Αναζήτηση στο YouTube για αυτό το τραγούδι

Μοιραστείτε αυτό το τραγούδι στο Facebook

 

Σύμφωνα με τα στατιστικά μας, σας προτείνουμε να συνεχίσετε με ένα από τα παρακάτω τραγούδια:
 
Αδιέξοδο - Ιωαννίδης Αλκίνοος (Ιωαννίδης Αλκίνοος/Ιωαννίδης Αλκίνοος)
Βυθός - Ιωαννίδης Αλκίνοος (Ιωαννίδης Αλκίνοος/Ιωαννίδης Αλκίνοος)
Καθρέφτης - Ιωαννίδης Αλκίνοος (Ιωαννίδης Αλκίνοος/Ιωαννίδης Αλκίνοος)
Με τόσα ψέματα - Ιωαννίδης Αλκίνοος (Ιωαννίδης Αλκίνοος/Ιωαννίδης Αλκίνοος)
Αδιέξοδο - Ιωαννίδης Αλκίνοος (Ιωαννίδης Αλκίνοος)
Όσα η αγάπη ονειρεύεται - Ιωαννίδης Αλκίνοος (Ιωαννίδης Αλκίνοος/Ιωαννίδης Αλκίνοος)
Παράκληση - Ιωαννίδης Αλκίνοος (Ιωαννίδης Αλκίνοος/Ιωαννίδης Αλκίνοος)
Απόψε - Ιωαννίδης Αλκίνοος (Ιωαννίδης Αλκίνοος)
Καθρέφτης - Ιωαννίδης Αλκίνοος (Ιωαννίδης Αλκίνοος)
Αρετούσα - Ιωαννίδης Αλκίνοος (Ιωαννίδης Αλκίνοος/Σπάθας Γιάννης)
Σταγόνες στο γιαλό - Ιωαννίδης Αλκίνοος (Ιωαννίδης Αλκίνοος/Ιωαννίδης Αλκίνοος)
Βρέθηκαν και άλλες εκδόσεις αυτού του τραγουδιού (ή τραγούδια με παρόμοιους στίχους):
 
 

Σχόλια / Διορθώσεις / Αφιερώσεις:
 
Από: thrasuvoulos, στις 27-11-2003:
agaphte apostolea to komati pou esteiles einai poly kalo apo mousikhs apopsis[eimai kathhghths kitharas] wstoso xaneis ligo to rythmo sto tourou rou.ta leme
 

 
Από: Μαρια, στις 08-04-2004:
Στον Πανο που το τραγουδι μοιαζει να γραφηκε γιαυτον...
Καλες πτησεις!
 

 
Από: Μαρια, στις 22-09-2004:
Yperoxo...k poso alh8ino...
Afierwmeno...
 

 
Από: Θερίο, στις 02-10-2004:
Αφιερωμένο εξαιρετικά στον Αχτένιστο και στον Α.Α.Αντρα!!!!!!!!!!
 

 
Από: ΝΙΚΟΣ, στις 12-11-2004:
ΟΤΙ ΚΑΛΥΤΕΡΟ ΕΧΩ ΑΚΟΥΣΕΙ ΤΟΝ ΤΕΛΕΥΤΑΙΟ ΚΑΙΡΟ
 

 
Από: ΝΙΚΟΣ, στις 26-10-2005:
ΠΟΛΥ ΚΑΛΟ ΚΑΙ ΤΡΥΦΕΡΟ ΚΟΜΜΑΤΙ ...ΑΠΟΡΩ ΠΩΣ ΔΕΝ ΤΟ ΕΙΧΑ ΑΚΟΥΣΕΙ ΤΟΣΟ ΚΑΙΡΟ ...ΑΣΕ ΠΟΥ ΚΑΤΙ ΜΟΥ ΘΥΜΙΖΕΙ ...ΕΤΣΙ ΣΟΦΙΑ? ΝΑ ΣΑΙ ΚΑΛΑ...
 

 
Από: (ανώνυμο), στις 30-10-2005:
dimitri mou den to lew egw...o alkinoos ta eipe ola.na'sai panta kala
 

 
Από: beniamin, στις 16-11-2005:
DEN ITAN IBRISTIKO...Niko me tis omorfies pou akous..ktl..
 

 
Από: rita, στις 27-04-2006:
se kapion pou moiazei na to kanei diarkos
 

 
Από: :-(, στις 29-10-2006:
moiazei n m tairiazei toso auto to tragoudi... ka8e stixos... m leipeis kardia m... elpizw na gyriseis... mh me ksexnas...
 

 
Από: Petros Christou, στις 22-11-2006:
Fovero kommati ke me fantastiko stixo,poli trifero episis me stixous pou 8a mporousan na teria3oun se pollous apo mas ke na aggi3oun ton ka8ena...
 

 
Από: Jorge, στις 26-01-2007:
pos na min ginei to agapimeno tragoudi kapoiou??isos me voithises na vro ton agapimeno mou tragoudisti...mono pou eprepe na leei Mytilene-Thessaloniki kai mo mad!Afieromeno. . .miss u
 

 
Από: leonidas, στις 13-02-2007:
stin eisagwgh apo ekei poy mpenei h C uparxei pio eykolos tropos-pianontas C G Am G D (to katevasma) me daxtyla enoeitai
 

 
Από: (ανώνυμο), στις 16-09-2007:
που εισαι ρε αχιλλεα?
 

 
Από: mavra, στις 30-08-2008:
στην αρχή πάει

(Εισαγωγή)
  

          G                         D
e-----------------3---------------------------2--------
B-----0-------------1-----0-------0--------3----3---3--
G-0h2----0-----0------0-------0h2---0---2----------2---
D---------------------------------------0--------------
A-----------------------------------------------------
E------------3------------3----------------------------
(Επανάληψη 2 φορές, και συνέχεια...)
 

 
Από: (ανώνυμο), στις 27-10-2008:
DEN PAIRNEIS PIA DEN PAIRNEIS PIA APO TH SALONIKH....
DN PAIRNEIS PIA DN THLEFWNEIS... PAEI KAIROS NA ME THIMITHEIS...
STO L...
 

 
Από: lena, στις 26-07-2009:
to h anamesa stis notes ti shmainei ???
 

 
Από: Giorgos_Norvigia, στις 29-11-2009:
to -h- simainei hammer-on kai einai to antitheto tou -p-(pull-off). Dld: 0h2= paizeis sto 0 kai pas kateutheian sto 2 xoris na xtipiseis omos ti xordi.
 

 
Προσθέστε το δικό σας σχόλιο / διόρθωση / αφιέρωση
 

Kithara International, Vanuatu. All rights reserved.

1.0603 sec