logo

 
1996 - Της αγάπης γερακάρης

Αποσπερίτης

Παπακωνσταντίνου Θανάσης

 

Μουσική/Στίχοι: /

Στις: 10-12-2005
(3.3/5.0, με 38 ψήφους)
 

Αξιολογήστε την παραπάνω καταγραφή του τραγουδιού:    Ακριβής     Λανθασμένη

Βρήκατε κάποιο λάθος; Δηλώστε το παρακάτω, ή χρησιμοποιήστε την Αποστολή Διόρθωσης.

 

Η χρήση επιτρέπεται μόνο για προσωπική μελέτη και για εκπαιδευτικούς λόγους.
Η παραπάνω καταγραφή δηλώνει την προσωπική γνώμη του αποστολέα για τον τρόπο με τον οποίο μπορεί να παιχτεί το παραπάνω τραγούδι.

 

Αλλαγή τόνου: ημιτόνια

Απόκρυψη tablature

Απόκρυψη συγχορδιών

Εκτύπωση

YouTube

Facebook

 

Σύμφωνα με τα στατιστικά μας, σας προτείνουμε να συνεχίσετε με ένα από τα παρακάτω τραγούδια:
 
Βρέθηκαν και άλλες εκδόσεις αυτού του τραγουδιού (ή τραγούδια με παρόμοιους στίχους):
 
 

Σχόλια / Διορθώσεις / Αφιερώσεις:
 
Από: (ανώνυμο), στις 01-02-2015:
το αφιερωνω σε ενα κοριτσι το αγαπω πολυ.
 

 
Από: μιχάλης, στις 18-07-2013:
Οι συγχορδίες είναι καλές, η εισαγωγή έχει κάποια μικρά λάθη, βασικά το κομμάτι έχει αρκετά hammer on...
 

 
Από: giorgos, στις 29-07-2011:
Mipos kapios borei na me voithisi me to arpisma sto ipolipo tragoudi!! to pezi o malamas etsi
 

 
Από: αγγελικη, στις 17-04-2011:
τα βηματα μας αθελα μας..ειναι δωρα ακριβα...για αυτους που μενουν..και περιμενουν στο σουρουπο μιαν αγκαλια......
μαγικοοο τραγουδι.....:))))
 

 
Από: dredg, στις 05-10-2010:
E---------------------------0--1--0-------3-------3--5--7--5--5----------------
B----------1---0----------------------3-----------------------------5---3------
G-------2---------2-----0----------------------0----------------------------4--
D----2-------------------------------------------------------------------------
A--0------------------3------------------------------------------0-------------
Ε------------------------------------------3-----------------------------------



E--------------------------0--1--0----------------3--0--------------0---------------
B---------1---0----------------------3------------------3--0------------------1-----
G------2---------2-----0----------------------0------------------2-----2----2---2---
D---2-------------------------------------------------------------------------------
A-0------------------3-----------------------------------------0--------------------
Ε-------------------------------------------3---------------------------------------


ετσι ειναι αναποδογυρισμένο για να διαβαζεται νορμαλ.καλή δουλειά
 

 
Από: miltos , στις 02-09-2010:
popo mou evgale tn pisti mexri na to vgalw etsi opws einai anapoda alla einai poli wraio!!
 

 
Από: Sleeper, στις 20-12-2009:
Η εισαγωγή είναι αρκετά λάθος, καταρχήν οι ταμπλατούρες γράφονται ανάποδα... οι συγχορδίες καλές όμως
 

 
Από: xleburas, στις 15-07-2009:
re paidia emena giati den mou akougetai kala i eisagwgi?
 

 
Από: πλακέντο, στις 13-07-2009:
sto tairiazeis egw paizw kai ena C,dld kapws etsi:
Dm
Κι εσύ αποσπερίτη μου
                  C    Dm
του δειλινού ταιριάζεις.        μου ακούγεται καλύτερα ετσι!
 

 
Από: sotiris, στις 06-03-2009:
vasika sto sugkekrimeno tab exoun graftei anapoda oi xordes,dhladh i teleutaia xordh edw einai i psili mi kai oxi i mpasa ws suni8ws!
 

 
Από: χριστινάκι, στις 20-01-2009:
Κι εσύ αποσπερίτη μου του του δειλινού ταιριάζεις...Άδολα είναι τα μάτια σου και μην τα κατεβάζεις.Α,ρε φλοκάτη σ'αγαπάω δεν το βλέπεις?
 

 
Από: dimitris, στις 26-12-2008:
σε ευχαριστω bluebird
 

 
Από: bluebird, στις 18-12-2008:
File Dimitris thn eisagwgh boreis na th diavaseis ws ekshs:
oi grammes einai oi xordes ths kitharas k oi arithmoi ta tasta!h 1h grammh einai h E h psilh k h teleutaia h E h varia!
Polu aplo!

Fovero tragoudi!
 

 
Από: dimitris, στις 13-12-2008:
εξηγηστε μου πως μπορω να διαβασω την εισαγωγη
 

 
Από: maria, στις 07-12-2007:
ενα τραγουδι μαγικο που σε συνεπαιρνει... ''γι'αυτους που μενουν και περιμενουν στο σουρουπο μιαν αγκαλια..'' Μπραβο θαναση.. Μπραβο και σε τρια παιδια που παντα θα μου θυμιζει το τραγουδι αυτο...........
 

 
Από: jim, στις 22-01-2006:
sto tairiazeis ena Do+ nomizo tairiazei!