logo

 
2000 - Ο φύλακας κι ο βασιλιάς

Πριγκηπέσα

Μάλαμας Σωκράτης

 

Μουσική/Στίχοι: /

Στις: 22-04-2009
(3.9/5.0, με 57 ψήφους)
 

Αξιολογήστε την παραπάνω καταγραφή του τραγουδιού:    Ακριβής     Λανθασμένη

Βρήκατε κάποιο λάθος; Δηλώστε το παρακάτω, ή χρησιμοποιήστε την Αποστολή Διόρθωσης.

 

Η χρήση επιτρέπεται μόνο για προσωπική μελέτη και για εκπαιδευτικούς λόγους.
Η παραπάνω καταγραφή δηλώνει την προσωπική γνώμη του αποστολέα για τον τρόπο με τον οποίο μπορεί να παιχτεί το παραπάνω τραγούδι.

 

Αλλαγή τόνου: ημιτόνια

Απόκρυψη tablature

Απόκρυψη συγχορδιών

Εκτύπωση

YouTube

Facebook

 

Σύμφωνα με τα στατιστικά μας, σας προτείνουμε να συνεχίσετε με ένα από τα παρακάτω τραγούδια:
 
Βρέθηκαν και άλλες εκδόσεις αυτού του τραγουδιού (ή τραγούδια με παρόμοιους στίχους):
 
 

Σχόλια / Διορθώσεις / Αφιερώσεις:
 
Από: nickcort, στις 03-03-2014:
πολυ καλη δουλεια απολους~! το τραγουδι ειναι σε ουσακ δηλ Η-Τ-Τ-Τ-Η-Τ-Τ Οποτε πειρματιστιτε!!!
 

 
Από: axilleas, στις 22-05-2011:
xreiazetai ena wraio kapo tasto sto deutero tasto tis kitharas ;-)
 

 
Από: babis, στις 01-01-2011:
paidia nomizw pws t komati theilei kapo tasto..xwris na kserw akrivos pou t thelei k oute exe ftiaksei kapia tablatura
 

 
Από: ...., στις 25-05-2010:
@???
file o george evale sto telos pws pezontai ola ta akornta.. :)
an e3eresoume 1-2 lathakia sti mesi tou tab tis isagwgis ise olosostos file :)
 

 
Από: ????, στις 25-04-2010:
RE GIORGO WRAIA SUMFWNW E5 KAI Dsus2 OMWS EGW RE DE EXW IDEA TI EINAI AYTA HELP PLEASE
 

 
Από: kuriakos, στις 02-01-2010:
mprabo re george sinxaritiria,diladh re file o tonos tis em einai lathos;
 

 
Από: George apo Tauro, στις 31-10-2009:
Έχω βάλει μια παραπομπή στο τέλος του τραγουδιού που λέει ποιές είναι οι συγχορδίες.
Κι εμένα με δυσκολεύει να θυμάμαι ποιές είναι γι αυτό συνηθίζω να τις γράφω στο τέλος για να μπορώ ανά πάσα στιγμή να παίξω το κομμάτι και να μην σκέφτομαι "τι στο διά*λο είναι αυτή η E/F;;;"

Τσέκαρέ το και πες μου
 

 
Από: Δανιηλ, στις 25-10-2009:
paidia ego den thelo na diorthoso tipota giati eimai mathiteuomenos stin kithara. mporei na me voitheisei kaneis gia to pos paizo tis notes --> Asus2 E/f
 

 
Από: tasos1992, στις 20-10-2009:
Παιδιά εγώ πιστεύω πως είναι έτσι:
(Το 0 στην παρενθεση ειναι αυτο που βρισκεται στο προηγουμενο μετρο και δεν παίζεται)
|-----------------------------------------------------------------------------------------------------------------
|-----------------------------------------------------------------------------------------------------------------
|-----------------------------------------------------------------------------------------------------------------
|-----------------------------------------------------------------------------------------------------------------
|----0h2--2--2-3-2-3-0-2-0-2----0h2--2--2-3-2-3-0-2-0-2---0--0--0-2-0-2---0---0---0--0--0-2-0-2---0---------------
|--0-------------------------3--------------------------3---------------3---3---1---------------3---3-1-0---------

|-----------------------------------------------------------------------------------------------------------------
|-----------------------------------------------------------------------------------------------------------------
|-----------------------------------------------------------------------------------------------------------------
|-----------------------------------------------------------------------------------------------------------------
|----0h2--2--2-3-2-3-0-2-0-2----0h2--2--2-3-2-3-0-2-0-2---0--0--0-2-0-2---0---0---0--0--0-2-0-2---0---------------
|-(0)------------------------3--------------------------3---------------3---3---1---------------3---3-1-0---------
 
|----------------------------------------------------------------
|----------------------------------------------------------------
|----------------------------------------------------------------
|----------------------------------------------------------------
|---------0h2h0------------------0h2h0---------------------------
|-0-1-0-3-------3-1-0----0-1-0-3-------3-1-0--0------------------
 

 
Από: George apo Tauro, στις 30-09-2009:
Ευχαριστώ πολύ ρε παιδιά χαίρομαι που σας αρέσει!

Φίλε αυτοδίδακτε κι εγώ αυτοδίδακτος είμαι, το παλεύω αν και δεν ξέρω καλή μουσική, έχω καλό αυτί.
Έχω ανεβάσει κι άλλα λίγα κομμάτια και σιγά σιγά θα προσπαθήσω να ανεβάσω κι άλλα.

Εδώ είναι αυτά που έχω ανεβάσει:
http://kithara.vu/index.php?cmd=si&snd=ceprce+aqp+taurp
 

 
Από: fanios, στις 28-09-2009:
αψογος συγχαριτηρια..συνεχισε ..
 

 
Από: manos, στις 27-09-2009:
apsogos file
 

 
Από: aftodidaxtos92, στις 24-09-2009:
george apo tauro ta sixaritiria m k apo emena g tn prospa8ia s p opws vlepw apoferei t kalitero apotelesma...sinexise file m 3eris pragmatika apo mousiki sinexise na mas ebneeis me ts prosopikes s pinelitses p omorfenoun akoma perisotero t tragoudia...perimenw k ala tragoudia s...( paidia me tn 12xordi akougete apistefto t tragoudi... )
 

 
Από: George apo Tauro, στις 27-08-2009:
Ευχαριστώ φίλε!
Όντως θα ήταν ωραίο να υπήρχε ένα site με ελληνικές guitar pro tabs.
Βοηθάει πάρα πολύ το guitar pro γιατί γράφω πρώτα εκεί το κομμάτι και μετά το βγάζω σε ταμπλατούρα με σωστούς χρονισμούς κλπ και χωρίς πολύ κόπο.
 

 
Από: zisis, στις 02-08-2009:
epitelous k mia sosti tablatura tou kommatiou. prepei n organothei ena site me ellinika tragoudia gia to guitar pro. kali douleia file sinexise na vgazeis ki alles sostes tablatures... t katexeis......