logo

 
2015

Δεν Μπορούμε Να 'μαστε Μαζί

Μέλισσες

 

Μουσική/Στίχοι: /

Στις: 26-11-2015
(3.9/5.0, με 14 ψήφους)
 

Αξιολογήστε την παραπάνω καταγραφή του τραγουδιού:    Ακριβής     Λανθασμένη

Βρήκατε κάποιο λάθος; Δηλώστε το παρακάτω, ή χρησιμοποιήστε την Αποστολή Διόρθωσης.

 

Η χρήση επιτρέπεται μόνο για προσωπική μελέτη και για εκπαιδευτικούς λόγους.
Η παραπάνω καταγραφή δηλώνει την προσωπική γνώμη του αποστολέα για τον τρόπο με τον οποίο μπορεί να παιχτεί το παραπάνω τραγούδι.

 

Αλλαγή τόνου: ημιτόνια

Απόκρυψη συγχορδιών

Εκτύπωση

YouTube

Facebook

 

Σύμφωνα με τα στατιστικά μας, σας προτείνουμε να συνεχίσετε με ένα από τα παρακάτω τραγούδια:
 
 

Σχόλια / Διορθώσεις / Αφιερώσεις:
 
Από: jimakos, στις 05-12-2016:
Φοβερό τραγούδι! Ορίστε και το intro όπως προσπάθησα να το βγάλω με το αφτί.. όποιες διορθώσεις δεχτές :P

h : hammer
p : pull
s : slide

e-----------------------------------3-----------------------------------------
B---------0--1--3--1h3p1p0----------0-----------0--1--3--1h3p1p0--------------
G------2--------------------2-------0--------2--------------------2--2s4------
D---2--------------------------2----2-----2-----------------------------------
A-----------------------------------2-----------------------------------------
E-----------------------------------0-----------------------------------------

e-----------------------------------3-------------------------------------0---
B---------0--1--3--1h3p1p0----------0-----------0--3--1h3p1p0-------------0---
G------2--------------------2-------0--------2-----------------2----------0---
D---2--------------------------2----2-----2-------------------------------2---
A-----------------------------------2-------------------------------------2---
E-----------------------------------0-------------------------------------0---
 

 
Από: Steve, στις 10-05-2016:
Ωραίος! Το μόνο που λείπει αν θες να συμπληρώσεις είναι στο τέλος ανεβαίνει. Επειδή δεν είναι ίδιο με τα 2 πρώτα ρεφρεν έπρεπε να το έχεις γράψει κ αυτό! ;)
 

 
Από: guitarrok, στις 10-01-2016:
πολυ καλος , αν μπορεις κανε ενα tab με τη μελωδια στην αρχη! ευχαριστω