logo

 
2014 - Ειλικρινά

Εξαιτίας σου

Οικονομόπουλος Νίκος

 

Μουσική/Στίχοι: Καπίρης Πάνος/Γιαννατσούλια Ελένη

D# μινόρε
Στις: 13-05-2015
(5, με 11 ψήφους)
 

Αξιολογήστε την παραπάνω καταγραφή του τραγουδιού:    Ακριβής     Λανθασμένη

Βρήκατε κάποιο λάθος; Δηλώστε το παρακάτω, ή χρησιμοποιήστε την Αποστολή Διόρθωσης.

 

Η χρήση επιτρέπεται μόνο για προσωπική μελέτη και για εκπαιδευτικούς λόγους.
Η παραπάνω καταγραφή δηλώνει την προσωπική γνώμη του αποστολέα για τον τρόπο με τον οποίο μπορεί να παιχτεί το παραπάνω τραγούδι.

 

Αλλαγή τόνου: ημιτόνια

Απόκρυψη tablature

Απόκρυψη συγχορδιών

Εκτύπωση

YouTube

Facebook

 

Σύμφωνα με τα στατιστικά μας, σας προτείνουμε να συνεχίσετε με ένα από τα παρακάτω τραγούδια:
 
Βρέθηκαν και άλλες εκδόσεις αυτού του τραγουδιού (ή τραγούδια με παρόμοιους στίχους):
 
 

Σχόλια / Διορθώσεις / Αφιερώσεις:
 
Από: Αμπατζόγλου Γιάννης, στις 09-10-2017:
το σολάκι στη μέση του τραγουδιού, παίζεται 2 φορές το ίδιο και έχει ως εξής:

e/---11----------------------|------------------------|
B/-11--14-12-11-----11-12-12-|------------14-12-11-11-|
G/-------------13-13---------|-13-13-13-13------------|
D/---------------------------|------------------------|
A/---------------------------|------------------------|
E/---------------------------|------------------------|

e/---11-------------------------|---------------------------|
B/-11--14-12-11------11-1-------|---------------------------|
G/-------------13--13--13-13-11-|-11-10-11-10-11-13-10------|
D/------------------------------|---------------------13-13-|
A-------------------------------|---------------------------|
E/------------------------------|---------------------------|