logo

 
2010 - Το παιχνίδι παίζεται

Πεταλούδα

Παπακωνσταντίνου Βασίλης

 

Μουσική/Στίχοι: Παπακωνσταντίνου Βασίλης/Ιωάννου Οδυσσέας

Από: Χάρης Σπ
Στις: 07-08-2010
(2.5, με 8 ψήφους)
 

Αξιολογήστε την παραπάνω καταγραφή του τραγουδιού:    Ακριβής     Λανθασμένη

Βρήκατε κάποιο λάθος; Δηλώστε το παρακάτω, ή χρησιμοποιήστε την Αποστολή Διόρθωσης.

 

Η χρήση επιτρέπεται μόνο για προσωπική μελέτη και για εκπαιδευτικούς λόγους.
Η παραπάνω καταγραφή δηλώνει την προσωπική γνώμη του αποστολέα για τον τρόπο με τον οποίο μπορεί να παιχτεί το παραπάνω τραγούδι.

 

Αλλαγή τόνου: ημιτόνια

Απόκρυψη συγχορδιών

Εκτύπωση

YouTube

Facebook

 

Σύμφωνα με τα στατιστικά μας, σας προτείνουμε να συνεχίσετε με ένα από τα παρακάτω τραγούδια:
 
 

Σχόλια / Διορθώσεις / Αφιερώσεις:
 
Από: vasilis, στις 08-06-2015:
ρε παιδια στειλτε οποιος εχει την καλοσυνη το σολο της πεταλουδας υπεροχο τραγουδι
 

 
Από: ΤΖΕΝΗ, στις 24-06-2014:
τα δικίμασα όλα..και μου ακούγεται καλύτερο το τελευταίο ανώνυμο στις 05-10-2013................περισσότερα μπορεί κανείς να δώσει............σχετικά με το παίξιμο του υπόλοιπου τραγουδιού;πως να παίξει το δεξί δηλαδή;;;
 

 
Από: (ανώνυμο), στις 05-10-2013:
καλά και τα δύο αλλά νομίζω πως έτσι ακούγεται καλύτερα:
D/--2-4-5-9-7----0-2-4-7-5-----0-2-5-4-----4-4-2-0-2--------
A/---------------------------3------------------------------
Ε/----------------------------------------------------------
 

 
Από: (ανώνυμο), στις 27-09-2012:
wraios koursaros alla nomizw paei kalhtera etsi:
D/--2--4--5--9--7-------0--2--4--7--5-----4--4--2--0--2
A/-----------------------------------------------------
E/-----------------------------------------------------
 

 
Από: EVGemini77, στις 18-12-2011:
guitar solo cover
http://www.youtube.com/watch?v=Suj0HAAc4U0
 

 
Από: Tzelios, στις 18-05-2011:
Wraios re koursaros....an mporeis na mas to dwseis olo to solo re c.Poli wraio kommati...!!!
 

 
Από: Alexis, στις 21-04-2011:
Poli oreo tragoudi!
dokimaste to me dwdekaxordi kithara!
 

 
Από: koursaros, στις 16-10-2010:
E-----------------------------------------------------------
B-----------------------------------------------------------
G-----------2p3p2-----------2--0----------0-----------------
D--2--4--5---------0--2--4-------0--2--4-----4--2--4--2--0--2
A-----------------------------------------------------------
E-----------------------------------------------------------