logo

 
1987 - Το φανάρι του Διογένη

Γιουσουρούμ

Άσιμος Νικόλας

 

Μουσική/Στίχοι: Άσιμος Νικόλας/Άσιμος Νικόλας

Στις: 08-03-2008
(3.5, με 20 ψήφους)
 

Αξιολογήστε την παραπάνω καταγραφή του τραγουδιού:    Ακριβής     Λανθασμένη

Βρήκατε κάποιο λάθος; Δηλώστε το παρακάτω, ή χρησιμοποιήστε την Αποστολή Διόρθωσης.

 

Η χρήση επιτρέπεται μόνο για προσωπική μελέτη και για εκπαιδευτικούς λόγους.
Η παραπάνω καταγραφή δηλώνει την προσωπική γνώμη του αποστολέα για τον τρόπο με τον οποίο μπορεί να παιχτεί το παραπάνω τραγούδι.

 

Αλλαγή τόνου: ημιτόνια

Απόκρυψη tablature

Απόκρυψη συγχορδιών

Εκτύπωση

YouTube

Facebook

 

Σύμφωνα με τα στατιστικά μας, σας προτείνουμε να συνεχίσετε με ένα από τα παρακάτω τραγούδια:
 
Βρέθηκαν και άλλες εκδόσεις αυτού του τραγουδιού (ή τραγούδια με παρόμοιους στίχους):
 
 

Σχόλια / Διορθώσεις / Αφιερώσεις:
 
Από: beng, στις 23-07-2016:
Διόρθωση ή Αdim που εβαλες καλά ακούγεται αλλά την εγραψες λάθος στην ανάλυση αυτή που γράφεις είναι Αmaj7 το σωστό tab της Αdim είναι από κάτω προς πάνω C..A..D#..A..
 

 
Από: Στοσχρη, στις 01-09-2015:
Μάγκες, ο ρυθμός του κομματιού είναι βαλς, 3/4. 
Δεν το παίζει ξεκάθαρα, αλλά ακούστε και μετρήστε το. 
Στη μελωδία στο ρεφρέν γίνεται πιο αισθητό.
 

 
Από: bill, στις 30-10-2013:
nomizw oti Admin einai
D-1
G-2
B-1
 

 
Από: (ανώνυμο), στις 25-03-2010:
lathos.to arpisam einai:

e|------0------
B|-------1-----
G|----2---2----
D|---2---------
A|--0----------
E|-------------
 

 
Από: papageorge, στις 25-03-2010:
paides nomizw pws h plhrhs eisagwgh einai etsi:

e|-0----------------------------------------------
B|-1-----------------------------1-------------------
G|-2----------------------------0-------------1------
D|-2-----------0-2-0-----------2-------------2-------
A|-0------0-2-3--------3-2-0--3-----3-2-0---2--------
E|-----------------------------------------0---------

e|----------------------------------------------
B|------------1----------------------------------
G|-----------2-----------------------------------
D|----------2--------------------------------------
A|---------0--------------------------------------
E|--0-2-3------------------------------------------

kai apeftheias meta akouw arpisma 

e|-------0----
B|--------1----
G|----2----2---
D|---2--------
E|--0---------
 

 
Από: Tony, στις 16-11-2009:
main riff

D--------5----------7--5------------5---5-6-7--------------
A-5--7---3---5--7---5--3---5--7-----3---------5-6-7--3-4-5-
E-3--5-5-----3--5-5--------3--5--5-------------------------
 

 
Από: Mousatos1, στις 19-09-2009:
Στο τελος καθε σειρας της εισαγωγης, αντι για:

E|-----------
B|-----------
G|-----------
D|-----0-----
A|-2-2---3-0-
E|-----------

νομιζω παει καλυτερα αυτο:

E|-----------
B|-----------
G|-----------
D|---------0-
A|-----2-3---
E|--0--------

καλη δουλεια κατα τα αλλα.
Μπραβο
 

 
Από: orφεαc, στις 24-04-2009:
i isagwgi dn ein etsi.tulaxiston dn tn epeze etc se ena original komati tu nikola sto youtube.oso gia to Adim dokimase ligo to e minor nomizw oti paei kalitera.monos mu to evgala apo to youtube opws 3anaanefera tra an to eixe la8os ixografimeno ti na pw
 

 
Από: Jiannis, στις 27-11-2008:
Πρώτον μου φαίνεται πως το έχεις σωστό, απλά νομίζω πως η Adim είναι:  B - 1
             G - 2
             D - 1
             A - 0
 

 
Από: κροκερ, στις 12-04-2008:
Βασικά ξέρεις τον δαχτυλισμό στο άρπισμα που κάνει ο Άσιμος στο κομμάτι?