logo

 
1987 - Ζήτω το ελληνικό τραγούδι

Πάρε με

Παπακωνσταντίνου Βασίλης

 

Μουσική/Στίχοι: /

Στις: 21-06-1998
(3.8/5.0, με 44 ψήφους)
 

Αξιολογήστε την παραπάνω καταγραφή του τραγουδιού:    Ακριβής     Λανθασμένη

Βρήκατε κάποιο λάθος; Δηλώστε το παρακάτω, ή χρησιμοποιήστε την Αποστολή Διόρθωσης.

 

Η χρήση επιτρέπεται μόνο για προσωπική μελέτη και για εκπαιδευτικούς λόγους.
Η παραπάνω καταγραφή δηλώνει την προσωπική γνώμη του αποστολέα για τον τρόπο με τον οποίο μπορεί να παιχτεί το παραπάνω τραγούδι.

 

Αλλαγή τόνου: ημιτόνια

Απόκρυψη συγχορδιών

Εκτύπωση

YouTube

Facebook

 

Σύμφωνα με τα στατιστικά μας, σας προτείνουμε να συνεχίσετε με ένα από τα παρακάτω τραγούδια:
 
Βρέθηκαν και άλλες εκδόσεις αυτού του τραγουδιού (ή τραγούδια με παρόμοιους στίχους):
 
 

Σχόλια / Διορθώσεις / Αφιερώσεις:
 
Από: argiris, στις 26-11-2009:
     E  E  E  E  E  E  E  E     E  E  E  E  E  E  E  E   
E||--7--------5-----8--7-----|-----0--------7--7--7--5--|
B||--------0-----------------|--0--------0--------------|
G||-----0--------5--------0--|--------0-----------------|
D||--------------------------|--------------------------|
A||-----------0--------------|-----------------------0--|
E||--0-----------------0-----|-----0--------0-----------|


  E  E  E  E  E  E  E  E      Q    T T E  S Q    E  E   
-----8--7--------0--------|--10----7-8-7--7-5----------|
--------------0--------0--|---6------------------5-----|
--5--------0--------0-----|---7---------------------5--|
--------------------------|----------------------------|
--------------------------|-----------------0----------|
--------0--------0--------|----------------------------|


  E  E  E  Q    E  E  E     E   E  E  E  E  E  E   E   
--1--1----------1--0-----|-----12-----------------12--|
--3-----1--0-------------|--0------0-----------0------|
----------------------0--|------------0-----0---------|
--0----------------------|----------------------------|
-------------------------|----------------------------|
-------------------0-----|------0--------0------------|


--------||
--0-----||
-----0--||
--------||
--------||
--------||
 

 
Από: swtos, στις 13-02-2009:
paidia pistevw oti etsi einai kanonika i eisagwgi...

Εισαγωγή:

e--7--5--8-7--0--7-7-7-5--8-7
B-----------------------------
G-----------------------------

e----10--8--7-8--7-5--1-1-1----1-0
B---------------------------3-----
G-------------------------------
 

 
Από: Γιάννης Ταμπάκος, στις 14-01-2009:
Είναι τόσο ΤΕΡΑΣΤΙΟ το κομμάτι αυτό που ακόμα και τώρα 20 χρόνια μετά που το πρωτοάκουσα νιώθω το ίδιο ρίγος με τότε που ήμουνα έφηβος, μη σας πω περισσότερο τώρα...
Γειά σου ρε Βασίλη να σαι καλά να μας δίνεις συνεχεια τέτοια κομμάτια...
"όχι πως έχω το κλειδί του παραδείσου
μα σ'αγαπώ κι αυτό νομίζω είναι κάτι"
 

 
Από: Λοιζος Γρουτας, στις 23-12-2008:
giati den iparxi i melodia
 

 
Από: Vasilis, στις 18-10-2008:
Σε όλους εσάς που πονέσατε κ σ ολους οσους αγαπησαν και δεν πηραν το αντιτιμο που ισως να περιμεναν. Μην σταματατε ν'αγαπάτε κ μην φοβάστε να πληγωθείτε. Η αγαπη δεν ειναι χειροπιαστη, δεν ανταλλασεται δεν μετριέται και δεν πουλιέται. κ αν δωσατε κ σεν πηρατε μην πληγώνεστε η αγαπη σας δεν χαθηκε θα ερθει απο αλλου.


Στον ταφο μου επανω
μη βαλετε  καντιλι,
μοναχα ενα  στερεο
ν' ακουω το βασιλη.
 

 
Από: rockabili, στις 13-10-2008:
poios asimos re paidia?pate kala?vasilis mousiki afroditi manou stoixous! T E L O S !
 

 
Από: car!, στις 01-10-2008:
simfwnw apolita! foveros stixos!
 

 
Από: i was only dreamin, στις 22-06-2008:
" Όχι πως έχω το κλειδί του παραδείσου Μα σ’ αγαπώ κι αυτό νομίζω είναι κάτι"
ti stiiiixos Xristeee mouuuu!
 

 
Από: lost bassist!!, στις 22-06-2008:
afto to tragudaki 8elw na to afierwsw stn rodoula !! tn agapaw poli!!!!
 

 
Από: ........., στις 18-03-2008:
xeri kanis p mporo na vro k notes g piano?
 

 
Από: ..:).., στις 14-03-2008:
ANTRIA k. EISAI POLLA EGOISTRIA..!epidi 3ero pos latrevis to moro mou 8a s to afiso..gt den mporo n se exo sinexia mesta podia m
 

 
Από: little princess, στις 01-07-2007:
oxi pws exw to kleidi tu paradeisu ma s'agapw k auto nmz einai kati.. poly dynatos stixos gia olus autus pu apla agapane kai exun tin agapi 4ila ston 8rono, ma dystixws kapoioi alloi dn to sevontai k den tus einai arketo k diwxnun autus pu tus xaizun tin agapi aploxera k nomizun oti dn einai arketi.. epitre4te mu omws na pw, na fwnw3w oti i agapi einai to polytimotero k to pio spanio pragma tu kosmu.. as to a3iopoiisume k an kapoia fora pligw8ume, oso k an ponesume na sikw8ume gera sta podia mas k na pume pws pantote meta tin synnefia k tin vroxi vgainei ston urano enas lamperos ilios.. gia olus esas.. x x
 

 
Από: shadow, στις 11-03-2007:
ma se agapw kai auto nomizw einai kati..............foveros stixos k o vasilhs akoma pio foveros
 

 
Από: rosana, στις 09-03-2007:
....kleineis ta matia kai se taxideuei makria kai se paei  pisw se pragmata pou exeis zisei kai se ponesan, kai twra apla sou xoun meinei..san mia glukia anamnisi...or akoma sou 8imizei pragmata pou zeis twra...or elpizeis na ziseis!!..i mousiki tou foveri...ma panw ap'ola i fwni tou Basili einai pou to kanei na nai sketi mageia!!!Basili kai sta epomena trianta...
 

 
Από: nikolaou, στις 04-03-2007:
einai tromero.............polli agapi
 

 
Από: axtenistos, στις 01-03-2007:
Ka8e fora pou to akouw mou erxetai mia ba8ia melagxolia an kapote 8a mporesw na to afierwsw se kapoia me oli ti dinami tiS kardias MOU ! amkari na to brw akoma kai as min to xarw, as min to apolausw....
 

 
Από: flamego, στις 31-01-2007:
bravo re xristiana.oraia logia.skliri epoxi bebaia gia romantismous alla..ayto paei na pei poihsh..
 

 
Από: philippos, στις 19-11-2006:
to teleftaio refren den iparxei! 2 fores epanalamvanetai mono
 

 
Από: xristiana, στις 25-10-2006:
"oxi pws exw to kleidi tou paradeisou,ma s'agapw ki auto nomizw einai kati..." lipamai gia osous den to antilamvanontai oti den xreiazetai tipota perissotero apo tin agapi...lipamai gi' autous pou diwxnoun apo dipla tous- i akoma adiaforoun gia-atoma pou tous agapoun k tous noiazontai ali8ina...
 

 
Από: slash, στις 22-10-2006:
o kajales to eipe to 2004 kai eseis apantate meta apo 2 xronia??? pantws einai vasilis;)
 

 
Από: (ανώνυμο), στις 17-09-2006:
Από: kajales, στις 26-07-2004:
Η μουσική ΔΕΝ είναι του Παπακωνσταντίνου στο "πάρε με". Είναι του Νικόλα Άσιμου.

Τι λες φιλε μου? αν δεν εισαι σιγουρος γι'αυτο που θες να πεις μην το λες!! διασταυρωσε το πρωτα!!
 

 
Από: PhantomTiger, στις 16-01-2006:
H eisagwgi kata tin gnwmi mou einai etsi:

e--7--5--8-7--0--7-7-7-5--8-7
B-----------------------------
G-----------------------------

e----10--8--7-8--7-5--1--3-5--1-0
B-------------------------------
G-------------------------------
 

 
Από: ingenous angela h vasiloporomeni, στις 02-01-2006:
oi sxetiles na min milane!i mousiki einai fysika tou vasili....
 

 
Από: Ypoftos86, στις 05-11-2005:
H eisagwgh paei kapws etsi

e--7--5--8-7-5-3-7-7-7-5-10-7-10-8-7-8-7-5
B------------------------------------------6--6--5--3--6--5
 

 
Από: Ypoftos86, στις 23-10-2005:
H mousikh einai tou vasilara apla polla apo ta tragoudia tou diskou einai tou asimou
 

 
Από: kajales, στις 26-07-2004:
Η μουσική ΔΕΝ είναι του Παπακωνσταντίνου στο "πάρε με". Είναι του Νικόλα Άσιμου.